as GOING DOWN TO LIVERPOOL | The Bangles | Acordes

Going Down To Liverpool

The Bangles

Acordes

All Over the Place (1984)
Subida por ManuelWLongoria



Cambiar Cifrado
Americano Latino

Cambiar Tonalidad
-1 +1

Partir Pantalla Imprimir FAQ

+A
-A


Ver solo la LETRA
From: * (Franz Lemmermeyer)


F# F#7
Hey there
E F#
Where you going with that load of nothing in your hand?
F# F#7
I said hey, there
E F#
I feel this green and pleasant wind

B E F#
I'm going down to Liverpool do nothing
B E F#
I'm going down to Liverpool do nothing
B E F#
I'm going down to Liverpool do nothing
B
All the days of my life


Hey, where you going with that UB-40 in your hand
I said hey, there
I feel this green and pleasant wind

1.
E|--------------------------------|
B|-7---7-7-7---5-4-5---5-5-4-5----|
G|-8---8-8-8---6-4-6---6-6-4-6----|
D|--------------------------------|
A|--------------------------------|
E|--------------------------------|

2.
E|-----7---7---7-7-7---9--9-7--9--|
-7---7-7-7---7-7-7--11-11-9-11--|
G|-8-----8------------------------|
D|--------------------------------|
A|--------------------------------|
E|--------------------------------|

3. B E F#
E|-11-11-11-11-11-11-11-11-7-7-7-7-7-7-7-7- 9- 9- 9- 9- 9- 9-7-7- 9- 9-|
B|-12-12-12-12-12-12-12-12-9-9-9-9-9-9-9-9-11-11-11-11-11-11-9-9-11-11-|
G|-11-11-11-11-11-11-11-11-9-9-9-9-9-9-9-9-11-11-11-11-11-11-9-9-11-11-|
D|---------------------------------------------------------------------|
A|---------------------------------------------------------------------|
E|---------------------------------------------------------------------|

NUEVO FORO DE MÚSICA

¿Tienes alguna duda, consulta, pregunta, consejo o algo para compartir sobre esta canción?

¡Puedes abrir un hilo en el FORO para que la comunidad te ayude! Hacer una pregunta

ACORDES PARA GUITARRA

PIANO UKELELE
F#
F#7
E
B


Las más tocadas de The Bangles

F#
F#7
E
B