Eternal Flame
The Bangles
Acordes

Subida por walter1967
Álbum: Everything ( 1988)


Más Versiones
Ver. 2 Ver. 3 Ver. 4 Ver. 5 Ver. 6

Cambiar Cifrado
Americano Latino

Cambiar Tonalidad
-1 +1

Partir Pantalla Imprimir FAQ

+A
-A


Ver solo la LETRA
Introdução: G  G4  G  G4

G Em7 C D G
Close your eyes, give me your hands, darling
Em7 C D Em7
Do you feel my heart beating, do you understand?
B7 Em7 A7 D D/C
Do you feel the same? Am I only dreaming,
Am7
is this burning an eternal flame?

G Em7 C D G
I believe, it's meant to be, darling
Em7 C D Em7
I want you when you are sleeping, you belong with me
B7 Em7 A7 D D/C
Do you feel the same? Am I only dreaming,
Am7
or is this burning an eternal flame?

D Dm7 G D/F#
Say my name, sun shines through the rain
F G C G/B Am7 C/G
a whole life so lonely and then come and ease the pain
D Bm7 F/C C D9
I don't wanna lose this fee-ling, oh

E|-----------------------------------------------|
B|--12--12---12/13/12--10------------------------|
G|-------------------------12------14------16----|
D|-----------------------------14------14--------|
A|-----------------------------------------------|
E|-----------------------------------------------|

E|-----------------------------------------------|
B|-----------------------------------------------|
G|-----------------------------------------------|
D|--12--12-10/9--10--12-10/9--10-----------------|
A|-----------------------------------------------|
E|-----------------------------------------------|

G Em7 C D G
Close your eyes, give me your hands, darling
Em7 C D Em7
Do you feel my heart beating, do you understand?
B7 Em7 A7 D Bm7
Do you feel the same? Am I only dreaming,
Am7
or is this burning an eternal flame?

(Vocalização Final com a primeira estrofe)

ACORDES PARA GUITARRA

PIANO UKELELE
G
G4
Em7
C
D
B7
A7
D/C
Am7
Dm7
D/F#
F
G/B
C/G
Bm7
F/C
D9


COMENTARIOS

Aún no hay comentarios,

¡escribe el primero!

Escribe una pregunta, duda o comentario sobre esta canción, te responderemos a la brevedad.

Las más tocadas de The Bangles

Toca una Canción al Azar de The Bangles
G
G4
Em7
C
D
B7
A7
D/C
Am7
Dm7
D/F#
F
G/B
C/G
Bm7
F/C
D9