Walk Like An Egyptian
The Bangles
Acordes

Subida por Tauro6559
Álbum: Different Light ( 1985)


Más Versiones
Ver. 2

Cambiar Cifrado
Americano Latino

Cambiar Tonalidad
-1 +1

Partir Pantalla Imprimir FAQ

+A
-A

From: * (Franz Lemmermeyer)

The following lyrics are from uwp; i don't recall exactly where the
switches from A to G and back are, so be prepared for some
inaccuracies.


Main Voice: Vicki, Michael, Susanna

A
All the old paintings on the tombs
G A
They do the sand dance don't you know
A
If they move too quick (oh whey oh)
G A
They're falling down like a domino


All the bazaar men by the Nile
They got the money on a bet
Gold crocodiles (oh whey oh)
They snap their teeth on your cigarette

D
Foreign types with the hookah pipes say
Ay oh whey oh, ay oh whey oh
A
Walk like an Egyptian

The blonde waitresses take their trays
They spin around and they cross the floor
They've got the moves (oh whey oh)
You drop your drink then they bring you more

All the school kids so sick of books
They like the punk and the metal band
When the buzzer rings (oh whey oh)
They're walking like an Egyptian

All the kids in the marketplace say
Ay oh whey oh, ay oh whey oh
Walk like an Egyptian

Slide your feet up the street bend your back
Shift your arm then you pull it back
Life is hard you know (oh whey oh)
So strike a pose on a Cadillac

If you want to find all the cops
They're hanging out in the donut shop
They sing and dance (oh whey oh)
Spin the clubs cruise down the block

All the Japanese with their yen
The party boys call the Kremlin
And the Chinese know (oh whey oh)
They walk the line like Egyptian

All the cops in the doughnut shop say
Ay oh whey oh, ay oh whey oh
Walk like an Egyptian
Walk like an Egyptian





...SOLO

D Minor
E|-----------------------------------------------------|
B|---7---7---------------------------------------------|
G|---7b--7r----------7----7--5---5--7---7--5--7--------|
D|-----------------------------------------------------|
A|-----------------------------------------------------|
E|-----------------------------------------------------|

E|-----------------------------------------------------|
B|---------------------------------------12~-----------|
G|---7--5--7--5----------8---9---8-------11~-----------|
D|---------------7----/9-------------9-----------------|
A|-----------------------------------------------------|
E|-----------------------------------------------------|

E|----------7-7----------|-------10-10--10------10-----|
B|---7------7-7----------|-------10-10--10-------------|
G|---7--9b-------9r--7~--|--12b-------------12b--------|
D|-----------------------|-----------------------------|
A|-----------------------|-----------------------------|
E|-----------------------|-----------------------------|

E|------------------------------------------------------|
B|----11-11-119---7-7-76------8--9--8-----/13--11-----|
G|---------------------------9-----------9-----------13-|
D|------------------------------------------------------|
A|------------------------------------------------------|
E|------------------------------------------------------|
...Try to feel the ending!
E|------------|-------10-10------10--------------------|
B|------------|-------10-10----------------------------|
G|---18--16~--|--12b---------12b-----------------------|
D|------------|----------------------------------------|
A|------------|----------------------------------------|
E|------------|----------------------------------------|

ACORDES PARA GUITARRA

PIANO UKELELE


COMENTARIOS

Aún no hay comentarios,

¡escribe el primero!

Escribe una pregunta, duda o comentario sobre esta canción, te responderemos a la brevedad.

Las más tocadas de The Bangles

Toca una Canción al Azar de The Bangles