Armagideon Time (Acordes)

The Clash

Subida por wilmerRodri

Compartir


Cambiar Cifrado
Americano Latino

Cambiar Tonalidad
-1 +1
Imprimir FAQ
+A
-A

Texto

Desplazamiento

Transportador

Color de Fondo

Archivos

TONALIDAD, TAMAÑO, CIFRADO, SCROL.

Nos renovamos: Ahora puedes cambiar TODO haciendo clic en ICONO de la Guitarra () que aparece en la parte inferior de esta página.


LETRA CON ACORDES

Intro Riff
------------------------------------------------
3--3------5--5------3--3-------5--5-------------
4--4-4----6--6-6----4--4-4-----6--6-6------------
------------------------------------------------
------------------------------------------------
------------------------------------------------
Intro words:
Stay around don't play around 
This old town and all
Seems like I got to travel on
Main Riff
------------------------------------------------
------------------------------------------------
--4----------------4-----------7-6-4-6-4---4----
----4-6-7-6-4--------4-6-7-7-------------7------
--------------5---------------------------------
------------------------------------------------
Bm              F#m7                  Bm          F#m7
A lot of people won't get no supper tonight
Bm              F#m7                  Bm          F#m7
A lot of people won't get no justice tonight
    Bm      F#m7       Bm      F#m7
The battle   is gettin hotter
         Bm   F#m7       Bm          F#m7
In this iration,     Armegideon time
A lot of people runnin and a hiding tonight
A lot of people won't get no justice tonight
Remember to kick it over
No one will guide you - Armegideon time
Ad lib vocals

Video Clip de Armagideon Time


ACORDES PARA GUITARRA

PIANO UKELELE


TOP 20: Las más tocadas de The Clash


Toca una Canción al Azar de The Clash

Acordes

Cerrar

18.51

x

133