Rudie Cant Fail (Acordes)

The Clash

Full Álbum: London Calling (1979)
Subida por manu

Compartir


Cambiar Cifrado
Americano Latino

Cambiar Tonalidad
-1 +1
Imprimir FAQ
+A
-A

Texto

Desplazamiento

Transportador

Color de Fondo

Archivos

TONALIDAD, TAMAÑO, CIFRADO, SCROL.

Nos renovamos: Ahora puedes cambiar TODO haciendo clic en ICONO de la Guitarra () que aparece en la parte inferior de esta página.


LETRA CON ACORDES

Guitarists-jo strummer,mick jones
album-London Calling
Tabbed by-Smellslikefeet1

this isnt completly correct but its a start
if theres any mistakes feel free to email me
*

  A    D     G     E7
|-0-| |-2-| |-3-| |---| |---|
|-2-| |-3-| |-0-| |---| |---|
|-2-| |-2-| |-0-| |---| |-4-|
|-2-| |-0-| |-0-| |-4-| |-4-|
|---| |---| |-2-| |-4-| |-2-|
|---| |---| |-3-| |-2-| |---|

verse
|--0-0-0--2-0---|-0-0-0-------|-0-0-0--0----|-0-0-0-2-0-----|
|--2-2-2--3-2---|-2-2-2-------|-2-2-2--2----|-2-2-2-3-2-----|
|--2-2-2--2-2-x2|-2-2-2-------|-2-2-2--2----|-2-2-2-2-2-----|
|--2-2-2--0-2---|-2-2-2--4-4--|-2-2-2--2----|-2-2-2-0-2-----|
|---------------|--------4-4--|-------------|---------------|
|---------------|--------2-2--|-------------|---------------|

he plays this with the cords
|---------------------------------|
|---------------------------------|
|---------------------------------| repeat as heard
|-----4-------------4-------------|
|--4-5---4-7-4---4-5--------------|
|-5-----5------5-------2-2--------|

chorus
went to the market...
|-0-0-0--------------------|
|-2-2-2--------------------|
|-2-2-2-4-4-4--------------|
|-2-2-2-4-4-4-4-4-4-4-4-4--|
|-------2-2-2-4-4-4-2-4-4--|x3
|-------------2-2-2-2-2-2--|

rudy cant fail...
|-0---0-0--|
|-2---2-2--|
|-2-4-2-2--|
|-2-4-2-2--|
|---2------|
|----------|

verse again
chorusx2

ruuuuuudddy caaant telll
|-2---0-0-------|
|-3---2-2-------|
|-2-4-2-2-------|
|-0-4-2-2-------|
|---2-----------|
|---------------|

THERES AKK THE PARTS JUST PUT EM TOGETHER
enjoi

Video Clip de Rudie Cant Fail


ACORDES PARA GUITARRA

PIANO UKELELE


TOP 20: Las más tocadas de The Clash


Toca una Canción al Azar de The Clash

Acordes

Cerrar

23.50

x

250