Capital Radio (Acordes)

The Clash

Subida por Terrycauch

Compartir


Cambiar Cifrado
Americano Latino

Cambiar Tonalidad
-1 +1
Imprimir FAQ
+A
-A

Texto

Desplazamiento

Transportador

Color de Fondo

Archivos

TONALIDAD, TAMAÑO, CIFRADO, SCROL.

Nos renovamos: Ahora puedes cambiar TODO haciendo clic en ICONO de la Guitarra () que aparece en la parte inferior de esta página.


LETRA CON ACORDES

This is a sick song,and really easy to play so have fun

Tabbed by:Michael Buckley (The Don)
Email:*

Tuning:standard

The verse is played exactly the same as the intro

Intro and Verse:

e|-------------------------------------------------------------------------------|
B|-------------------------------------------------------------------------------|
G|---10--10----7---7-------------------------------------------------------------|
D|---10--10----7---7----8---8----10---10---------------X3------------------------|
A|---8---8-----5---5----8---8----10---10-----------------------------------------|
E|----------------------6---6----8----8------------------------------------------|

e|---------------------------------------------------------------------------|
B|---------------------------------------------------------------------------|
G|---------------------------------------------------------------------------|
D|---8-8-8-8-8-8-8-8-1010101010101010----------------------------------------|
A|---8-8-8-8-8-8-8-8-1010101010101010----------------------------------------|
E|---6-6-6-6-6-6-6-6-8-8-8-8-8-8-8-8-----------------------------------------|

Listen to the song to work out the change in tempo

Outro:
e|------------------------------------------------------------------------------|
B|------------------------------------------------------------------------------|
G|---9-9-9---6-6----------------------------------------------------------------|
D|---9-9-9---6-6---7-7---9-9-9--------------------------------------------------|
A|---7-7-7---4-4---7-7---9-9-9--------------------------------------------------|
E|-----------------5-5---7-7-7--------------------------------------------------|


Yes, it's time for the Dr. Gobbles Show!

There's a tower in the heart of London
With a radio station right at the top
They don't make the city beat
They're making the action stop

A long time ago there were pirates
Beaming in waves from the sea
But now all the stations are silent
'Cos they ain't got a government licencse

Wanna tell your problems
Phone in from your bedsit room
Having trouble with your partner
Let us all in the good news

If you wanna hear a record
Get the word from A to Z
He picks all the hits to play
To keep you in your place all day

In tune with nothing
In tune with nothing
-Funny noise from Strummer, not actual word-
In your place all day
Just a-lazing around all day
Ba-ba-ba-ba-bummin' all day
Backstreet a-hear us out
Grab attention go and go against the town
It's such a crime
Is it a game
We ain't got no rights
Slippin' off, slipping off
Slippin' off, slipping off
Slippin' off, slipping off
Don't touch that dial!
Don't touch that dial!
Don't touch that dial!
Don't touch that dial!

Video Clip de Capital Radio


ACORDES PARA GUITARRA

PIANO UKELELE


TOP 20: Las más tocadas de The Clash


Toca una Canción al Azar de The Clash

Acordes

Cerrar

04.46

x

197