Inoculated City (Acordes)

The Clash

Full Álbum: Combat Rock (1982)
Subida por Zaa727

Compartir


Cambiar Cifrado
Americano Latino

Cambiar Tonalidad
-1 +1
Imprimir FAQ
+A
-A

Texto

Desplazamiento

Transportador

Color de Fondo

Archivos

TONALIDAD, TAMAÑO, CIFRADO, SCROL.

Nos renovamos: Ahora puedes cambiar TODO haciendo clic en ICONO de la Guitarra () que aparece en la parte inferior de esta página.


LETRA CON ACORDES

Transcribed by Andrew Schmidt (*) 

Intro:
G-----------------------
D-----------------75----   
A ---5-----5---0------5-  
E 5-----5---------------

Main Riff
G---------------------------------------------
D--------------------------------------75-----
A-----0-55-0-5-0-55-0-5-0-55-0-5----0-----5--- 
E---------------------------------------------

Outro:
G---------------------
D---------------------
A---0-33-0-3-0-33-0-3-
E--------------------- 

Video Clip de Inoculated City


ACORDES PARA GUITARRA

PIANO UKELELE


TOP 20: Las más tocadas de The Clash


Toca una Canción al Azar de The Clash

Acordes

Cerrar

00.38

x

47