Remote Control (Acordes)

The Clash

Full Álbum: The Clash (1977)
Subida por Delta

Compartir


Cambiar Cifrado
Americano Latino

Cambiar Tonalidad
-1 +1
Imprimir FAQ
+A
-A

Texto

Desplazamiento

Transportador

Color de Fondo

Archivos

TONALIDAD, TAMAÑO, CIFRADO, SCROL.

Nos renovamos: Ahora puedes cambiar TODO haciendo clic en ICONO de la Guitarra () que aparece en la parte inferior de esta página.


LETRA CON ACORDES

INTRO
G:|----------------|----------------|
D:|----------------|----------------|
A:|3-3---------333-|3-3---------333-|
E:|----333--11-----|----333--11-----|

VERSE
:|----------------|----------------|----------------|  
D:|----------------|--5-------------|----------------|       
A:|3-3333-2-2222---|----02345-------|0-2-3-4---------|           
E:|---------------1|2---------------|----------------| 
 
D:|-------------------------|----------------| 
G:|-------------------------|----------------|
A:|-------------------------|55443322--------|
E:|1-1-1-1-0-0-0-0-3-3-3-3-3|--------55442200|

CHORUS
G:|----------------|    
D:|----------------|X3 
A:|----3-5---------|    
E:|3-------5-------|    
      
G:|----------------|    |---------------|
D:|----------------|X2  |---------------|X4
A:|55443322--------|    |---3-----5-----|
E:|--------55442200|    |---------------|

Video Clip de Remote Control


ACORDES PARA GUITARRA

PIANO UKELELE


TOP 20: Las más tocadas de The Clash


Toca una Canción al Azar de The Clash

Acordes

Cerrar

22.21

x

65