Cigarello
The Fratellis
Acordes

Subida por Javy



Cambiar Cifrado
Americano Latino

Cambiar Tonalidad
-1 +1

Partir Pantalla Imprimir FAQ

+A
-A
Tabbed by: Aron S
Email: *

Tuning: standard


Intro:

e|---------------------|
B|---------------------|
G|--555--555--555------|
D|--555--555--555--55--| x4
A|--333--333--333--55--|
E|-----------------33--|


Verse:

e|---------------------------------|
B|---------------------------------|
G|--5-55-55-55-----5-55-55-55------|
D|--5-55-55-55-55--5-55-55-55-55---| x4
A|--3-33-33-33-55--3-33-33-33-55---|
E|-------------33-------------33---|


Pre-Chorus:

e|--------------------------------------|
B|--------------------------------------|
G|-----------7-77-77-----------7-77-77--|
D|--7-77-77--7-77-77--7-77-77--7-77-77--|
A|--7-77-77--5-55-55--7-77-77--5-55-55--|
E|--5-55-55-----------5-55-55-----------|


Chorus:

e|--------------------------------------|
B|--------------------------------------|
G|--5-55-55-----------5-55-55-----------|
D|--5-55-55--3-33-33--5-55-55--5-55-55--| x2
A|--3-33-33--3-33-33--3-33-33--5-55-55--|
E|-----------1-11-11-----------3-33-33--|


Solo:

e|------------------------------------------------|
B|---------------------8^10-8-6-------------------|
G|------------------------------9-7h9-------------|
D|--10-7-7--10-10-7-7-----------------10-7-7-10/--|
A|------------------------------------------------|
E|------------------------------------------------|

e|--14^16-14-12-----------------------------17^19-17-15--------------|
B|--------------15-13h15p13----13h15p13-15--------------18-16h18p16--|
G|--------------------------14---------------------------------------|
D|-------------------------------------------------------------------|
A|-------------------------------------------------------------------|
E|-------------------------------------------------------------------|

e|--15^17-15----13---------|--------------------------------------------|
B|-----------13----15-13~--|--------------------------------------------|
G|-------------------------|--12--------------------------------12(x8)--|
D|-------------------------|---x----12--10--12--14(x8)-15-14-15---------|
A|-------------------------|--10----------------------------------------|
E|-------------------------|--------------------------------------------|

| / slide up
| slide down
| h hammer-on
| p pull-off
| ~ vibrato
| + harmonic
| x Mute note
===============================================================================

ACORDES PARA GUITARRA

PIANO UKELELE


COMENTARIOS

Aún no hay comentarios,

¡escribe el primero!

Escribe una pregunta, duda o comentario sobre esta canción, te responderemos a la brevedad.

Las más tocadas de The Fratellis

Toca una Canción al Azar de The Fratellis