Henrietta
The Fratellis
Acordes

Subida por jecccastro
Álbum: Costello Music ( 2006)



HERRAMIENTAS

Cambiar Cifrado
Americano Latino

Cambiar Tonalidad
-1 +1

Partir Pantalla Imprimir FAQ

Ver solo la LETRA

+A
-A
LETRA CON ACORDES

¿Tu Guitarra esta Afinada? PRUEBA NUESTRO NUEVO AFINADOR

Intro                                                  
E|-----7-----7-----7--7---|-----7-----7-----7--7--|
B|-----7-----7-----7--7---|-----7-----7-----7--7--|
G|-----8-----8-----8--8---|-----8-----8-----8--8--|
D|--9-----9-----9-----9---|--9-----9-----9-----9--|
A|--9-----9-----9-----9---|--9-----9-----9-----9--|
E|--7-----7-----7-----7---|--7-----7-----7-----7--|

-----7--7------7--7---7-7-7-7-7-|
-----7--7------7--7---7-7-7-7-7-|
-----8--8------8--8---8-8-8-8-8-|
--9-----9---9-----9---9-9-9-9-9-|
--9-----9---9-----9---9-9-9-9-9-|
--7-----7---7-----7---7-7-7-7-7-|

Verso
-----7-----7-----7-----7-|-----4-----4-----4----4--|-----2-----2-----2-----2--|
-----7-----7-----7-----7-|-----4-----4-----4----4--|-----2-----2-----2-----2--|
-----8-----8-----8-----8-|-----5-----5-----5----5--|-----3-----3-----3-----3--|
--9-----9-----9-----9----|--6-----6-----6----6-----|--4-----4-----4-----4-----|
--9-----9-----9-----9----|--6-----6-----6----6-----|--4-----4-----4-----4-----|
--7-----7-----7-----7----|--4-----4-----4----4-----|--2-----2-----2-----2-----|

--0--0--0--0--0--0--0--0--|
--4--4--4--4--4--4--4--4--|
--1--1--1--1--1--1--1--1--|
--2--2--2--2--2--2--2--2--|
--2--2--2--2--2--2--2--2--|
--0--0--0--0--0--0--0--0--|

-----7-----7-----7-----7-|-----4-----4-----4----4--|-----2-----2-----2-----2--|
-----7-----7-----7-----7-|-----4-----4-----4----4--|-----2-----2-----2-----2--|
-----8-----8-----8-----8-|-----5-----5-----5----5--|-----3-----3-----3-----3--|
--9-----9-----9-----9----|--6-----6-----6----6-----|--4-----4-----4-----4-----|
--9-----9-----9-----9----|--6-----6-----6----6-----|--4-----4-----4-----4-----|
--7-----7-----7-----7----|--4-----4-----4----4-----|--2-----2-----2-----2-----|

--0--0--0--0--0--0--0--0--|
--4--4--4--4--4--4--4--4--|
--1--1--1--1--1--1--1--1--|
--2--2--2--2--2--2--2--2--|
--2--2--2--2--2--2--2--2--|
--0--0--0--0--0--0--0--0--|


Ponte
|--0------0-0--0-0-0-2--2-2--2-2-2-|
|--0------0-0--0-0-0-2--2-2--2-2-2-|
|--1------1-1--1-1-1-3--3-3--3-3-3-|
|--2------2-2--2-2-2-4--4-4--4-4-4-|
|--2------2-2--2-2-2-4--4-4--4-4-4-|
|--0------0-0--0-0-0-2--2-2--2-2-2-|

--7--6--5--4----4-4-4-4-4-4-|--0--0-0--0-0-0-2--2-2--2-2-2-|
--7--6--5--4----4-4-4-4-4-4-|--0--0-0--0-0-0-2--2-2--2-2-2-|
--8--7--6--5----5-5-5-5-5-5-|--1--1-1--1-1-1-3--3-3--3-3-3-|
--9--8--7--6----6-6-6-6-6-6-|--2--2-2--2-2-2-4--4-4--4-4-4-|
--9--8--7--6----6-6-6-6-6-6-|--2--2-2--2-2-2-4--4-4--4-4-4-|
--7--6--5--4----4-4-4-4-4-4-|--0--0-0--0-0-0-2--2-2--2-2-2-|

--7--7-7--7-7-7-4--4--4--4--|--0--0-0--0-0-0-2--2-2--2-2-2-|
--7--7-7--7-7-7-4--4--4--4--|--0--0-0--0-0-0-2--2-2--2-2-2-|
--8--8-8--8-8-8-5--5--5--5--|--1--1-1--1-1-1-3--3-3--3-3-3-|
--9--9-9--9-9-9-6--6--6--6--|--2--2-2--2-2-2-4--4-4--4-4-4-|
--9--9-9--9-9-9-6--6--6--6--|--2--2-2--2-2-2-4--4-4--4-4-4-|
--7--7-7--7-7-7-4--4--4--4--|--0--0-0--0-0-0-2--2-2--2-2-2-|

--7--6--5--4----4-4-4-4-4-4-|-----3-----3-----3-----3--|--2-2-2-2-2-2-2-2-2--|
--7--6--5--4----4-4-4-4-4-4-|-----3-----3-----3-----3--|--2-2-2-2-2-2-2-2-2--|
--8--7--6--5----5-5-5-5-5-5-|-----4-----4-----4-----4--|--3-3-3-3-3-3-3-3-3--|
--9--8--7--6----6-6-6-6-6-6-|--5-----5-----5-----5-----|--4-4-4-4-4-4-4-4-4--|
--9--8--7--6----6-6-6-6-6-6-|--5-----5-----5-----5-----|--4-4-4-4-4-4-4-4-4--|
--7--6--5--4----4-4-4-4-4-4-|--3-----3-----3-----3-----|--2-2-2-2-2-2-2-2-2--|


Refrão
--7------7-7--7-7-7-7--7-7--7-7-7-|---9---9--9---9--9--9--9---9--9---9--9--9-|
--7------7-7--7-7-7-7--7-7--7-7-7-|---9---9--9---9--9--9--9---9--9---9--9--9-|
--8------8-8--8-8-8-8--8-8--8-8-8-|--10--10-10--10-10-10-10--10-10--10-10-10-|
--9------9-9--9-9-9-9--9-9--9-9-9-|--11--11-11--11-11-11-11--11-11--11-11-11-|
--9------9-9--9-9-9-9--9-9--9-9-9-|--11--11-11--11-11-11-11--11-11--11-11-11-|
--7------7-7--7-7-7-7--7-7--7-7-7-|---9---9--9---9--9--9--9---9--9---9--9--9-|

--0--0-0--0-0-0-0--0-0--0-0-0-|--3--3-3--3-3-3-2--2-2--2-2-2-|
--0--0-0--0-0-0-0--0-0--0-0-0-|--3--3-3--3-3-3-2--2-2--2-2-2-|
--1--1-1--1-1-1-1--1-1--1-1-1-|--4--4-4--4-4-4-3--3-3--3-3-3-|
--2--2-2--2-2-2-2--2-2--2-2-2-|--5--5-5--5-5-5-4--4-4--4-4-4-|
--2--2-2--2-2-2-2--2-2--2-2-2-|--5--5-5--5-5-5-4--4-4--4-4-4-|
--0--0-0--0-0-0-0--0-0--0-0-0-|--3--3-3--3-3-3-2--2-2--2-2-2-|

--7--7-7--7-7-7-7--7-7--7-7-7-|---9---9--9---9--9--9--9---9--9---9--9--9-|
--7--7-7--7-7-7-7--7-7--7-7-7-|---9---9--9---9--9--9--9---9--9---9--9--9-|
--8--8-8--8-8-8-8--8-8--8-8-8-|--10--10-10--10-10-10-10--10-10--10-10-10-|
--9--9-9--9-9-9-9--9-9--9-9-9-|--11--11-11--11-11-11-11--11-11--11-11-11-|
--9--9-9--9-9-9-9--9-9--9-9-9-|--11--11-11--11-11-11-11--11-11--11-11-11-|
--7--7-7--7-7-7-7--7-7--7-7-7-|---9---9--9---9--9--9--9---9--9---9--9--9-|

--0--0-0--0-0-0-0--0-0--0-0-0-|--3--3-3--3-3-3-2--2-2--2-2-2-|
--0--0-0--0-0-0-0--0-0--0-0-0-|--3--3-3--3-3-3-2--2-2--2-2-2-|
--1--1-1--1-1-1-1--1-1--1-1-1-|--4--4-4--4-4-4-3--3-3--3-3-3-|
--2--2-2--2-2-2-2--2-2--2-2-2-|--5--5-5--5-5-5-4--4-4--4-4-4-|
--2--2-2--2-2-2-2--2-2--2-2-2-|--5--5-5--5-5-5-4--4-4--4-4-4-|
--0--0-0--0-0-0-0--0-0--0-0-0-|--3--3-3--3-3-3-2--2-2--2-2-2-|

Verso

-----7-----7-----7-----7-|-----4-----4-----4----4--|-----2-----2-----2-----2--|
-----7-----7-----7-----7-|-----4-----4-----4----4--|-----2-----2-----2-----2--|
-----8-----8-----8-----8-|-----5-----5-----5----5--|-----3-----3-----3-----3--|
--9-----9-----9-----9----|--6-----6-----6----6-----|--4-----4-----4-----4-----|
--9-----9-----9-----9----|--6-----6-----6----6-----|--4-----4-----4-----4-----|
--7-----7-----7-----7----|--4-----4-----4----4-----|--2-----2-----2-----2-----|

--0--0--0--0--0--0--0--0--|
--4--4--4--4--4--4--4--4--|
--1--1--1--1--1--1--1--1--|
--2--2--2--2--2--2--2--2--|
--2--2--2--2--2--2--2--2--|
--0--0--0--0--0--0--0--0--|

-----7-----7-----7-----7-|-----4-----4-----4----4--|-----2-----2-----2-----2--|
-----7-----7-----7-----7-|-----4-----4-----4----4--|-----2-----2-----2-----2--|
-----8-----8-----8-----8-|-----5-----5-----5----5--|-----3-----3-----3-----3--|
--9-----9-----9-----9----|--6-----6-----6----6-----|--4-----4-----4-----4-----|
--9-----9-----9-----9----|--6-----6-----6----6-----|--4-----4-----4-----4-----|
--7-----7-----7-----7----|--4-----4-----4----4-----|--2-----2-----2-----2-----|

--0--0--0--0--0--0--0--0--|
--4--4--4--4--4--4--4--4--|
--1--1--1--1--1--1--1--1--|
--2--2--2--2--2--2--2--2--|
--2--2--2--2--2--2--2--2--|
--0--0--0--0--0--0--0--0--|

Ponte
|--0------0-0--0-0-0-2--2-2--2-2-2-|
|--0------0-0--0-0-0-2--2-2--2-2-2-|
|--1------1-1--1-1-1-3--3-3--3-3-3-|
|--2------2-2--2-2-2-4--4-4--4-4-4-|
|--2------2-2--2-2-2-4--4-4--4-4-4-|
|--0------0-0--0-0-0-2--2-2--2-2-2-|

--7--6--5--4----4-4-4-4-4-4-|--0--0-0--0-0-0-2--2-2--2-2-2-|
--7--6--5--4----4-4-4-4-4-4-|--0--0-0--0-0-0-2--2-2--2-2-2-|
--8--7--6--5----5-5-5-5-5-5-|--1--1-1--1-1-1-3--3-3--3-3-3-|
--9--8--7--6----6-6-6-6-6-6-|--2--2-2--2-2-2-4--4-4--4-4-4-|
--9--8--7--6----6-6-6-6-6-6-|--2--2-2--2-2-2-4--4-4--4-4-4-|
--7--6--5--4----4-4-4-4-4-4-|--0--0-0--0-0-0-2--2-2--2-2-2-|

--7--7-7--7-7-7-4--4--4--4--|--0--0-0--0-0-0-2--2-2--2-2-2-|
--7--7-7--7-7-7-4--4--4--4--|--0--0-0--0-0-0-2--2-2--2-2-2-|
--8--8-8--8-8-8-5--5--5--5--|--1--1-1--1-1-1-3--3-3--3-3-3-|
--9--9-9--9-9-9-6--6--6--6--|--2--2-2--2-2-2-4--4-4--4-4-4-|
--9--9-9--9-9-9-6--6--6--6--|--2--2-2--2-2-2-4--4-4--4-4-4-|
--7--7-7--7-7-7-4--4--4--4--|--0--0-0--0-0-0-2--2-2--2-2-2-|

--7--6--5--4----4-4-4-4-4-4-|-----3-----3-----3-----3--|--2-2-2-2-2-2-2-2-2--|
--7--6--5--4----4-4-4-4-4-4-|-----3-----3-----3-----3--|--2-2-2-2-2-2-2-2-2--|
--8--7--6--5----5-5-5-5-5-5-|-----4-----4-----4-----4--|--3-3-3-3-3-3-3-3-3--|
--9--8--7--6----6-6-6-6-6-6-|--5-----5-----5-----5-----|--4-4-4-4-4-4-4-4-4--|
--9--8--7--6----6-6-6-6-6-6-|--5-----5-----5-----5-----|--4-4-4-4-4-4-4-4-4--|
--7--6--5--4----4-4-4-4-4-4-|--3-----3-----3-----3-----|--2-2-2-2-2-2-2-2-2--|

Refrão
--7------7-7--7-7-7-7--7-7--7-7-7-|---9---9--9---9--9--9--9---9--9---9--9--9-|
--7------7-7--7-7-7-7--7-7--7-7-7-|---9---9--9---9--9--9--9---9--9---9--9--9-|
--8------8-8--8-8-8-8--8-8--8-8-8-|--10--10-10--10-10-10-10--10-10--10-10-10-|
--9------9-9--9-9-9-9--9-9--9-9-9-|--11--11-11--11-11-11-11--11-11--11-11-11-|
--9------9-9--9-9-9-9--9-9--9-9-9-|--11--11-11--11-11-11-11--11-11--11-11-11-|
--7------7-7--7-7-7-7--7-7--7-7-7-|---9---9--9---9--9--9--9---9--9---9--9--9-|

--0--0-0--0-0-0-0--0-0--0-0-0-|--3--3-3--3-3-3-2--2-2--2-2-2-|
--0--0-0--0-0-0-0--0-0--0-0-0-|--3--3-3--3-3-3-2--2-2--2-2-2-|
--1--1-1--1-1-1-1--1-1--1-1-1-|--4--4-4--4-4-4-3--3-3--3-3-3-|
--2--2-2--2-2-2-2--2-2--2-2-2-|--5--5-5--5-5-5-4--4-4--4-4-4-|
--2--2-2--2-2-2-2--2-2--2-2-2-|--5--5-5--5-5-5-4--4-4--4-4-4-|
--0--0-0--0-0-0-0--0-0--0-0-0-|--3--3-3--3-3-3-2--2-2--2-2-2-|

--7--7-7--7-7-7-7--7-7--7-7-7-|---9---9--9---9--9--9--9---9--9---9--9--9-|
--7--7-7--7-7-7-7--7-7--7-7-7-|---9---9--9---9--9--9--9---9--9---9--9--9-|
--8--8-8--8-8-8-8--8-8--8-8-8-|--10--10-10--10-10-10-10--10-10--10-10-10-|
--9--9-9--9-9-9-9--9-9--9-9-9-|--11--11-11--11-11-11-11--11-11--11-11-11-|
--9--9-9--9-9-9-9--9-9--9-9-9-|--11--11-11--11-11-11-11--11-11--11-11-11-|
--7--7-7--7-7-7-7--7-7--7-7-7-|---9---9--9---9--9--9--9---9--9---9--9--9-|

--0--0-0--0-0-0-0--0-0--0-0-0-|--3--3-3--3-3-3-2--2-2--2-2-2-|
--0--0-0--0-0-0-0--0-0--0-0-0-|--3--3-3--3-3-3-2--2-2--2-2-2-|
--1--1-1--1-1-1-1--1-1--1-1-1-|--4--4-4--4-4-4-3--3-3--3-3-3-|
--2--2-2--2-2-2-2--2-2--2-2-2-|--5--5-5--5-5-5-4--4-4--4-4-4-|
--2--2-2--2-2-2-2--2-2--2-2-2-|--5--5-5--5-5-5-4--4-4--4-4-4-|
--0--0-0--0-0-0-0--0-0--0-0-0-|--3--3-3--3-3-3-2--2-2--2-2-2-|

-----7-7----7-7----7-7----7-|---------------------|-----2-2----2-2----2-2----2-|
-----7-7----7-7----7-7----7-|-------------9~------|-----2-2----2-2----2-2----2-|
-----8-8----8-8----8-8----8-|----------8----------|-----3-3----3-3----3-3----3-|
-----9-9----9-9----9-9----9-|------10-------------|-----4-4----4-4----4-4----4-|
-----9-9----9-9----9-9----9-|--11-----------------|-----4-4----4-4----4-4----4-|
----------------------------|---------------------|----------------------------|

------------------------|-----7-7----7-7----7-7----7-|---------------------|
------------------------|-----7-7----7-7----7-7----7-|-------------9~------|
--------7--9--7---------|-----8-8----8-8----8-8----8-|----------8----------|
-----6-----------6------|-----9-9----9-9----9-9----9-|------10-------------|
--7-----------------7~--|-----9-9----9-9----9-9----9-|--11-----------------|
------------------------|----------------------------|---------------------|

-----2-2----2-2----2-2----2-|------------------------|
-----2-2----2-2----2-2----2-|------------------------|
-----3-3----3-3----3-3----3-|--------7--9--7---------|
-----4-4----4-4----4-4----4-|-----6-----------6------|
-----4-4----4-4----4-4----4-|--7-----------------7~--|
----------------------------|------------------------|

Ponte
|--0------0-0--0-0-0-2--2-2--2-2-2-|
|--0------0-0--0-0-0-2--2-2--2-2-2-|
|--1------1-1--1-1-1-3--3-3--3-3-3-|
|--2------2-2--2-2-2-4--4-4--4-4-4-|
|--2------2-2--2-2-2-4--4-4--4-4-4-|
|--0------0-0--0-0-0-2--2-2--2-2-2-|

--7--6--5--4----4-4-4-4-4-4-|--0--0-0--0-0-0-2--2-2--2-2-2-|
--7--6--5--4----4-4-4-4-4-4-|--0--0-0--0-0-0-2--2-2--2-2-2-|
--8--7--6--5----5-5-5-5-5-5-|--1--1-1--1-1-1-3--3-3--3-3-3-|
--9--8--7--6----6-6-6-6-6-6-|--2--2-2--2-2-2-4--4-4--4-4-4-|
--9--8--7--6----6-6-6-6-6-6-|--2--2-2--2-2-2-4--4-4--4-4-4-|
--7--6--5--4----4-4-4-4-4-4-|--0--0-0--0-0-0-2--2-2--2-2-2-|

--7--7-7--7-7-7-4--4--4--4--|--0--0-0--0-0-0-2--2-2--2-2-2-|
--7--7-7--7-7-7-4--4--4--4--|--0--0-0--0-0-0-2--2-2--2-2-2-|
--8--8-8--8-8-8-5--5--5--5--|--1--1-1--1-1-1-3--3-3--3-3-3-|
--9--9-9--9-9-9-6--6--6--6--|--2--2-2--2-2-2-4--4-4--4-4-4-|
--9--9-9--9-9-9-6--6--6--6--|--2--2-2--2-2-2-4--4-4--4-4-4-|
--7--7-7--7-7-7-4--4--4--4--|--0--0-0--0-0-0-2--2-2--2-2-2-|

                                 *
--7--6--5--4----4-4-4-4-4-4-|-----3-----3-----3-----3--|--2-2-2-2-2-2-2-2-2--|
--7--6--5--4----4-4-4-4-4-4-|-----3-----3-----3-----3--|--2-2-2-2-2-2-2-2-2--|
--8--7--6--5----5-5-5-5-5-5-|-----4-----4-----4-----4--|--3-3-3-3-3-3-3-3-3--|
--9--8--7--6----6-6-6-6-6-6-|--5-----5-----5-----5-----|--4-4-4-4-4-4-4-4-4--|
--9--8--7--6----6-6-6-6-6-6-|--5-----5-----5-----5-----|--4-4-4-4-4-4-4-4-4--|
--7--6--5--4----4-4-4-4-4-4-|--3-----3-----3-----3-----|--2-2-2-2-2-2-2-2-2--|

*
|--------------------------|
|--------------------------|
|----6--7--9--7--6---------|
|--9----------------9--8~--|
|--------------------------|
|--------------------------|


refrão                                                                  

--7------7-7--7-7-7-7--7-7--7-7-7-|---9---9--9---9--9--9--9---9--9---9--9--9-|
--7------7-7--7-7-7-7--7-7--7-7-7-|---9---9--9---9--9--9--9---9--9---9--9--9-|
--8------8-8--8-8-8-8--8-8--8-8-8-|--10--10-10--10-10-10-10--10-10--10-10-10-|
--9------9-9--9-9-9-9--9-9--9-9-9-|--11--11-11--11-11-11-11--11-11--11-11-11-|
--9------9-9--9-9-9-9--9-9--9-9-9-|--11--11-11--11-11-11-11--11-11--11-11-11-|
--7------7-7--7-7-7-7--7-7--7-7-7-|---9---9--9---9--9--9--9---9--9---9--9--9-|

--0--0-0--0-0-0-0--0-0--0-0-0-|--3--3-3--3-3-3-2--2-2--2-2-2-|--7--|
--0--0-0--0-0-0-0--0-0--0-0-0-|--3--3-3--3-3-3-2--2-2--2-2-2-|--7--|
--1--1-1--1-1-1-1--1-1--1-1-1-|--4--4-4--4-4-4-3--3-3--3-3-3-|--8--|
--2--2-2--2-2-2-2--2-2--2-2-2-|--5--5-5--5-5-5-4--4-4--4-4-4-|--9--|
--2--2-2--2-2-2-2--2-2--2-2-2-|--5--5-5--5-5-5-4--4-4--4-4-4-|--9--|
--0--0-0--0-0-0-0--0-0--0-0-0-|--3--3-3--3-3-3-2--2-2--2-2-2-|--7--|

---9---9--9---9--9--9--9---9--9---9--9--9-|--0--0-0--0-0-0-0--0-0--0-0-0-|
---9---9--9---9--9--9--9---9--9---9--9--9-|--0--0-0--0-0-0-0--0-0--0-0-0-|
--10--10-10--10-10-10-10--10-10--10-10-10-|--1--1-1--1-1-1-1--1-1--1-1-1-|
--11--11-11--11-11-11-11--11-11--11-11-11-|--2--2-2--2-2-2-2--2-2--2-2-2-|
--11--11-11--11-11-11-11--11-11--11-11-11-|--2--2-2--2-2-2-2--2-2--2-2-2-|
---9---9--9---9--9--9--9---9--9---9--9--9-|--0--0-0--0-0-0-0--0-0--0-0-0-|

--3--3-3--3-3-3-2--2-2--2-2-2-|-----7----7----7--6--5--|
--3--3-3--3-3-3-2--2-2--2-2-2-|-----7----7----7--6--5--|
--4--4-4--4-4-4-3--3-3--3-3-3-|-----8----8----8--7--6--|
--5--5-5--5-5-5-4--4-4--4-4-4-|-----9----9----9--8--7--|
--5--5-5--5-5-5-4--4-4--4-4-4-|-----9----9----9--8--7--|
--3--3-3--3-3-3-2--2-2--2-2-2-|-----7----7----7--6--5--|

-----4----4----4--5--6--|-----7----7----7--6--5--|-----4----4----4--5--6--|
-----4----4----4--5--6--|-----7----7----7--6--5--|-----4----4----4--5--6--|
-----5----5----5--6--7--|-----8----8----8--7--6--|-----5----5----5--6--7--|
-----6----6----6--7--8--|-----9----9----9--8--7--|-----6----6----6--7--8--|
-----6----6----6--7--8--|-----9----9----9--8--7--|-----6----6----6--7--8--|
-----4----4----4--5--6--|-----7----7----7--6--5--|-----4----4----4--5--6--|

-----7----7----7--6--5--|-----4----4----4--4--4--|-----2-----2-----2--2---2-|
-----7----7----7--6--5--|-----4----4----4--4--4--|-----2-----2-----2--2---2-|
-----8----8----8--7--6--|-----5----5----5--5--5--|-----3-----3-----3--3-----|
-----9----9----9--8--7--|-----6----6----6--6--6--|-----4-----4-----4--4-----|
-----9----9----9--8--7--|-----6----6----6--6--6--|-----4-----4-----4--4-----|
-----7----7----7--6--5--|-----4----4----4--4--4--|--2-----2-----2-----------|

--0--0--0--0--0--0--0--0--|--0----------------||
--0--0--0--0--0--0--0--0--|--0----------------||
--7--7--7--7--7--7--7--7--|--7----------------||
--6--6--6--6--6--6--6--6--|--6----------------||
--7--7--7--7--7--7--7--7--|--7----------------||
--0--0--0--0--0--0--0--0--|--0----------------||////////////////// ¿Te Animas? Sube una canción a este sitio. //////////////////

ACORDES PARA GUITARRA

PIANO UKELELE


COMENTARIOS

Aún no hay comentarios,

¡escribe el primero!

Escribe una pregunta, duda o comentario sobre esta canción, te responderemos a la brevedad.

Las canciones más tocadas de The Fratellis

Toca una Canción al Azar de The Fratellis

09.32


Nuestro servidor se demoró 0.16 segundos en generar esta página. Eso fue realmente muy rápido!