Tell Me A Lie
The Fratellis
Acordes

Subida por Yuli
Álbum: Here We Stand ( 2008)


Más Versiones
Ver. 2 Ver. 3

Cambiar Cifrado
Americano Latino

Cambiar Tonalidad
-1 +1

Partir Pantalla Imprimir FAQ

+A
-A
Riff 1

E|---------------------|
B|---------------------|
G|--7b--5--7--5--------|
D|---------------7-----|
A|---------------------|
E|---------------------|


E5 G5 A5 E5 G5 A5 (Riff 1)
Ah-aah-ah...
E5 G5 A5 E5 G5 A5 (Riff 1)
Ah-aah-ah...
E5 G5 A5 E5*
Ah-aah-ah...
E5 G5 A5 E5*
Ah-aah-ah...
E5 G5 A5 E5*
Ah-aah-ah...
E5 G5 A5 E5*
Ah-aah-ah...
E5 G5 A5

E|--------------------|
B|--10-10---8-8---5---|
G|--------------------|
D|--------------------|
A|--------------------|
E|--------------------|

(Guitarra Solo faz isso durante a estrofe abaixo:)

E|------------------------------------------------------------------|
B|------------------15-13-15-13-15------------------17-15-17-15-17--|
G|--14-12-14-12-14------------------14-12-14-12-14------------------| 2x
A|------------------------------------------------------------------|
D|------------------------------------------------------------------|
E|------------------------------------------------------------------|

A5
Well once I was persuaded
D5
To open up my head
A5
I told them how it was
E5
And went and got it wrong instead
A5
I said would you believe me
D5
If you only knew
A5
I'd been stealing everything
E5 A5
This conversation's through

A5 C5 D5 E5*
And the boy cried hang him at three
E5* D5 C5 G5 A5
I saw him on the front page laughing at me
A5 C5 D5 E5*
He worked in a fairground, in a tall hat
E5* D5
He's a liar, he's a liar
C5 G5 A5
And a good one at that

A5 C5 D5 E5*
Say what you want to, say what you will
E5* D5 C5 G5 A5
Write your number on my telephone bill
A5 C5 D5 E5*
Walk like a monkey, kick like a mule
E5* D5 C5 G5 E5 G5 A5
I could be a beggar, but I'd rather be just as cruel

A5 E5*
Ah-aah-ah...
E5 G5 A5 E5*
Ah-aah-ah...
E5 G5 A5 E5*
Ah-aah-ah...
E5 G5 A5 E5*
Ah-aah-ah...
E5 G5

A5
So I told them all I could
D5
About what could they expect
A5
But I lost my sense of smell
E5
And I gained my self-respect
A5
They told me I was curious
D5
I told them they were slow
A5
And he asked me where I get this stuff
E5 A5
I told them I don't know

A5 C5 D5 E5*
And The boy cried whoopi de dee
E5* D5
There's a woman with a moustache
C5 G5 A5
Who won't let me be
A5 C5
She was born on a Monday
D5 E5*
She's a hundred and four
E5* D5
She's a liar, she's a liar
C5 G5 A5
And a little bit more

A5 C5 D5 E5*
Say what you want to, say what you will
E5* D5 C5 G5 A5
Write your number on my telephone bill
A5 C5 D5 E5*
Walk like a monkey, kick like a mule
E5* D5 C5 G5 E5 G5 A5
I could be a beggar, but I'd rather be just as cruel

E5 G5 A5 E5 G5 A5 E5 G5 A5
E|--------------------------------------------7-8-9-10-11-12----------17-17-17-17-17-17--|
B|---------------------- 7-7-7-7-7-7-----------------------------------------------------|
G|--7-7-7-7-7-7--------------------------------------------------------------------------|

(Todos com bends)

A5 G5 D5 (6x) <-- Base para o Solo

Solo (2:56):
Essa parte 4x
E|-------------------10-10p8-----------------------------|-11-12-12-|
B|------10-10-10p8-----------10-10-10p8-------10-10-8----|----------|
G|--9-9------------9--------------------9-9-9---------9--|----------|
D|-------------------------------------------------------|----------|
A|-------------------------------------------------------|----------|
E|-------------------------------------------------------|----------|

A5 C5 D5 E5*
And the boy cried hang him at three
E5* D5 C5 G5 A5
I saw him on the front page laughing at me
A5 C5 D5 E5*
He worked in a fairground, in a tall hat
E5* D5
He's a liar, he's a liar
C5 G5 A5
And a good one at that

A5 C5 D5 E5*
Say what you want to, say what you will
E5* D5 C5 G5 A5
Write your number on my telephone bill
A5 C5 D5 E5*
Walk like a monkey, kick like a mule
E5* D5 C5 G5 E5 G5 A5
I could be a beggar, but I'd rather be just as cruel

A5 E5*
Ah-aah-ah...
E5 G5 A5 E5*
Ah-aah-ah...
E5 G5 A5 E5*
Ah-aah-ah...
E5 G5 A5 E5*
Ah-aah-ah...
E5 G5 A5

ACORDES PARA GUITARRA

PIANO UKELELE
E5
G5
A5
D5
C5


COMENTARIOS

Aún no hay comentarios,

¡escribe el primero!

Escribe una pregunta, duda o comentario sobre esta canción, te responderemos a la brevedad.

Las más tocadas de The Fratellis

Toca una Canción al Azar de The Fratellis
E5
G5
A5
D5
C5