Everybody Knows You Cried Last Night
The Fratellis
Acordes

Subida por juancamaney
Álbum: Costello Music ( 2006)


Más Versiones
Ver. 2
HERRAMIENTAS

Cambiar Cifrado
Americano Latino

Cambiar Tonalidad
-1 +1

Partir Pantalla Imprimir FAQ

Ver solo la LETRA

+A
-A
LETRA CON ACORDES

¿Tu Guitarra esta Afinada? PRUEBA NUESTRO NUEVO AFINADOR

                ~~~~~~~~~~~~~~~~~~~~~~~~~~~~~~~~~~~~~~~~~~~~~~~~~~~~

This is my second tab, Fratellis again. I suggest if your playing this alone you try 
guitar 1 and guitar 2 until you come up with something that sounds decent.

Tabbed by : Dayle Hobson
Tuning    : Standard
Email     : *

Key:
h = Hammer On
b = Bend
/ = Slide Up
 = Slide Down
~ = Vibrato

______|E  A  D  G  B  e |
C     |8 10 10  9  10 10|
C²    |X  3  5  5  5  3 |
F     |1  3  3  2  1  1 |
E     |0  2  2  1  0  0 |
Am    |5  7  7  5  5  5 |
G#m   |4  6  6  4  4  4 |
G     |3  5  5  4  3  3 |
F#m   |2  4  4  2  2  2 |
D     |x  5  7  7  7  5 |
(8)F  |x  8 10 10 10  8 |
(10)G |x 10 12 12 12 10 |


~~[Guitar 1]~~
------------------------------------------------------------------------------
[Verse One]
------------------------------------------------------------------------------

|---------------------|
|---------------------|
|---------------------|
|---------------------|   Repeat
|-----------10--------|
|-3/8-8-8-8----8-10-8-|
Whistle for the boys now don't be shy...

|---------------------|
|---------------------|
|---------------------|
|---------------------|   Repeat
|-----------3---------|
|-1-1-1-1-----1-0-1---|
Give the boys a flash and they'll love you so
Give the girl some cash cause your mother said so...

|---------------------|
|---------------------|
|---------------------|
|---------------------|   Repeat
|-----------10--------|
|-3/8-8-8-8----8-10-8-|

|-----------|
|---8-8---8-|
|---7-7---7-|
|---6-6---6-|   Repeat
|---7-7---7-|
|-0-----0---|
And take em out to look at the queen...
------------------------------------------------------------------------------
[Bridge]
------------------------------------------------------------------------------

|-----------------|
|---5---5---5---5-|
|---5---5---5---5-|
|-7---6---5---4---|   Repeat
|-----------------|
|-----------------|
Lay yourself down by the side of the bed...

------------------------------------------------------------------------------
[Chorus]
------------------------------------------------------------------------------

|-1--1-1--3-3-|
|-1--1-1--5-5-|
|-3--3-3--5-5-|
|-4--4-4--5-5-|
|-4--4-4--3-3-|
|-1--1-1------|
Well, that's what you get..

|-12-12-12-12-12-12-|
|-9--9--9--9--9--9--|
|-9--9--9--9--9--9--|
|-9--9--9--9--9--9--|
|-------------------|
|-------------------|
Waiting in the queue oh whoopee doo
------------------------------------------------------------------------------
[Rinse and Repeat]
-------------------------------------------------------------------------------|
|-5-5--8--10-------------------------------------------------------------------|
|-7-7--10-12-------------------------------------------------------------------|
|-7-7--10-12-------------------------------------------------------------------|
|-7-7--10-12-------------------------------------------------------------------|
|-5-5--8--10-------------------------------------------------------------------|
|------------------------------------------------------------------------------|
Everybody knows you cried last night
------------------------------------------------------------------------------
[Verse two same as the first i guess and the same for the bridge and chorus]
------------------------------------------------------------------------------
[Solo]
------------------------------------------------------------------------------

|-------------------------------------------------------------------------------|
|-----------------------------8-10-----8-10-----8-10-8--------10-8-------8-10---|
|-------------------------7/9------7/9------7/9--------9-7---------9-7--------9-|
|----------------------------------------------------------10----------10-------|
|-12b13-10-12b13-12b13-10-------------------------------------------------------|
|-------------------------------------------------------------------------------|

|--------------------------|----------------------------------------------------------|
|-8-10--------8-10---------|----------------------------------------------------------|
|------9-7---------9-7-----|----------------------------------------------------------|
|----------10----------10~-|-13b14-13b14-12-10-12-10----------------------10-12-13b14-|
|--------------------------|-------------------------12-10----------10-12-------------|
|--------------------------|-------------------------------12-10-10-------------------|

|------------------------------------------------------------------------------|
|------------------------------------------------------------------------------|
|------------------------------------------------------------------------------|
|-10-9-10-9/10~----------------------------------------------------------------|
|------------------------------------------------------------------------------|
|------------------------------------------------------------------------------|
-------------------------------------------------------------------------------|
[Bridge]
------------------------------------------------------------------------------

|-----------------|
|---5---5---5---5-|
|---5---5---5---5-|
|-7---6---5---4---|   Repeat
|-----------------|
|-----------------|

------------------------------------------------------------------------------
[Chorus]
------------------------------------------------------------------------------
 _________________________________________________________________________________________
|_________________________________________________________________________________________|

~~[Guitar 2]~~  (play these chords barred)

   C
Whistle for the boys now don't be shy
Give us all a song and a reason why
Baby got the bones and a hand me down
Says her heart is black but her eyes are brown
  F
Give the boys a flash and they'll love you so
                                                C
Give the girl some cash cause your mother said so
  E
And take em out to look at the queen
And any old girl who's in between

 Am           G#m          G         F#m
Lay yourself down by the side of the bed
Am             G#m                G         F#m
Oh you naughty girl you know you tickle me red
Am           G#m          G        F#m
You look so dumb and you sound so twee
Am               G#m                G         F#m
And you can only wish that you was married to me

 F                     C²
Well, that's what you get
 F             C²
Oh don't get upset
 F           C²
Ridiculous you
 E                               F
Waiting in the queue oh whoopee doo
 F              C²
You could have been
 F                  C²
The best that I've seen
 F              C²
Under the red light
  D     (8fret)F     (10fret)G    C
Everybody knows you cried last night

 c
Give us all a go till your face turns red
Little Greg said you went home instead
If you stick around you'll get an alibi
And we'll try and keep your pretty face bone dry
 E
Rent a honey rent a honey one two three
                                              C
Chasing all the boys from your door cant be easy
 E
Well ruby said you was wrecked
But your was never well behaved the last time I checked

 Am           G#m          G         F#m
Lay yourself down by the side of the bed
Am             G#m                G         F#m
Oh you naughty girl you know you tickle me red
Am           G#m          G        F#m
You look so dumb and you sound so twee
Am               G#m                G         F#m
And you can only wish that you was married to me

 F                     C
Well, that's what you get
 F             C
Oh don't get upset
 F           C
Ridiculous you
 E                               F
Waiting in the queue oh whoopee doo
 F              C
You could have been
 F                  C
The best that I've seen
 F              C
Under the red light
  D     (8fret)F     (10fret)G    C
Everybody knows you cried last night

|--------------------------------------------------|
|--------------------------------------------------|
|--------------------------------------------------|
|------------------8-9-10-----------8h10-----------|
|-----------8-9-10-----------------------10-9-8----|
|-8-8-11-11---------------8-8-11-11-------------11-|

 Am           G#m          G         F#m
Lay yourself down by the side of the bed
Am             G#m                G         F#m
Oh you naughty girl you know you tickle me red
Am           G#m          G        F#m
You look so dumb and you sound so twee
Am               G#m                G         F#m
And you can only wish that you was married to me

 F                     C
Well, that's what you get
 F             C
Oh don't get upset
 F           C
Ridiculous you
 E                               F
Waiting in the queue oh whoopee doo
 F              C
You could have been
 F                  C
The best that I've seen
 F              C
Under the red light
  D     (8fret)F     (10fret)G    C
Everybody knows you cried last night
  D     (8fret)F     (10fret)G    C
Everybody knows you cried last night////////////////// ¿Te Animas? Sube una canción a este sitio. //////////////////

ACORDES PARA GUITARRA

PIANO UKELELE


COMENTARIOS

Aún no hay comentarios,

¡escribe el primero!

Escribe una pregunta, duda o comentario sobre esta canción, te responderemos a la brevedad.

Las canciones más tocadas de The Fratellis

Toca una Canción al Azar de The Fratellis

03.43


Nuestro servidor se demoró 3.73 segundos en generar esta página. Claramente hay conexiones mas rápidas...