Tea In Sahara (Acordes)

The Police

Subida por mariajoserestrepo

Compartir


Cambiar Cifrado
Americano Latino

Cambiar Tonalidad
-1 +1
Imprimir FAQ

Para cambio de tonalidad, zoom, cambio de cifrado, haz clic en este botón


CONSEJO:

Afina tu guitarra antes de tocar. Prueba nuestro afinador en linea.

+A
-A

Texto

Desplazamiento

Transportador

Color de Fondo

Archivos

TONALIDAD, TAMAÑO, CIFRADO, SCROL.

Nos renovamos: Ahora puedes cambiar TODO haciendo clic en ICONO de la Guitarra () que aparece en la parte inferior de esta página.


LETRA CON ACORDES

Tabbed By : Valerie L.
e-mail: *

Intro
G|-----------|     |-----------|
D|-----------|     |-----------|
A|44-2-4-----|     |--44-2-4---|
E|-----------| x5  |4----------| x12

Verse
G|---------------------|
D|---------------------|
A|---------------------|
E|2-2--2-2--5-5--5-5---| x8

Chorus
G|----------------------|
D|----------------------|
A|7-7-----7-------------|
E|------0----5-5--7-7---| x2

Verse x8

Chorus
G|------------------------|
D|------------------------|
A|7-7-7-------------------|
E|------0-0--5-5--7-7-----|

Bridge
G|----------|    |-----------|
D|----------|    |-----------|
A|44-2-4----|    |2-44-2-4---|
E|----------| x2 |-----------| x7

Verse x8

Chorus 
G|----------------------|
D|----------------------|
A|7-7-----7-------------|
E|------0----5-5--7-7---| x5

Outro
G|----------|  |-----------| |----------|
D|----------|  |-----------| |----------|
A|44-2-4----|  |2-44-2-4---| |22----2---|
E|----------|  |-----------| |----0-----|

Video Clip de Tea In Sahara


ACORDES PARA GUITARRA

PIANO UKELELE


TOP 20: Las más tocadas de The Police


Toca una Canción al Azar de The Police

Acordes

Cerrar

20.46


41