Shape Of My Heart
Sting
Acordes

Subida por kongo


Más Versiones

Cambiar Cifrado
Americano Latino

Cambiar Tonalidad
-1 +1

Partir Pantalla Imprimir FAQ

+A
-A
[Intro] F#m  C#m/E  Bm/D  C#7(11)  C#7
D/F# C#m/E Bm/D C#7(11) C#7
D6 A5 C# D G#m7(11) F#m

F#m C#m/E Bm/D C#7(11) C#7
E|------------------------------------------|
B|-10-----10----9-----9----7-----7----7---6-|
G|------6-----------6----------4--------4---|
D|------------------------------------------|
A|----9------7----7-----5----5-----5--4-----|
E|------------------------------------------|

D/F# C#m/E Bm/D C#7(11) C#7
E|------------------------------------------|
B|-10-----10----9-----9----7-----7----7---6-|
G|------7-----------6----------4--------4---|
D|------------------------------------------|
A|----9------7----7-----5----5-----5--4-----|
E|------------------------------------------|

D6 A5 C#
E|------------------------------------------|
B|-------7-----7------5---5---6---6---------|
G|-----4---4-----4----2h4-2-2---------------|
D|-----------7------------------6-----------|
A|-4-5------------------------4-------------|
E|------------------5-5---------------------|
H.N.

D G#m7(11) F#m
E|------------------2-----------------------|
B|-7-5----2---------2-----------------------|
G|-----7----4-2-----2-----------------------|
D|-7------4---------4-----------------------|
A|-5----------------4-----------------------|
E|--------4---------2-----------------------|

[Primeira Parte]

F#m C#m/E Bm/D C#7(11) C#7
E|------------------------------------------|
B|-10-----10----9-----9----7-----7----7---6-|
G|------6-----------6----------4--------4---|
D|------------------------------------------|
A|----9------7----7-----5----5-----5--4-----|
E|------------------------------------------|

D/F# C#m/E Bm/D C#7(11) C#7
E|------------------------------------------|
B|-10-----10----9-----9----7-----7----7---6-|
G|------7-----------6----------4--------4---|
D|------------------------------------------|
A|----9------7----7-----5----5-----5--4-----|
E|------------------------------------------|

D6 A5 C#
E|------------------------------------------|
B|-------7-----7------5---5---6---6---------|
G|-----4---4-----4----2h4-2-2---------------|
D|-----------7------------------6-----------|
A|-4-5------------------------4-------------|
E|------------------5-5---------------------|
H.N.

D G#m7(11) F#m
E|------------------2-----------------------|
B|-7-5----2---------2-----------------------|
G|-----7----4-2-----2-----------------------|
D|-7------4---------4-----------------------|
A|-5----------------4-----------------------|
E|--------4---------2-----------------------|

F#m C#m/E Bm/D C#7(11) C#7
He deals the cards as a meditation
D/F# C#m/E Bm/D C#7(11) C#7
And those he plays never suspect
D6 A5 C#
He doesn't play for the money he wins
D G#m7(11) F#m
He doesn't play for respect

F#m C#m/E Bm/D C#7(11) C#7
He deals the cards to find the answer
D/F# C#m/E Bm/D C#7(11) C#7
The sacred geometry of chance
D6 A5 C#
The hidden law of a probable outcome
D G#m7(11) F#m
The numbers lead a dance

[Refrão]

F#m C#m/E Bm/D C#7(11) C#7
I know that the spades are swords of a soldier
D/F# C#m/E Bm/D C#7(11) C#7
I know that the clubs are weapons of war
D6 A5 C#
I know that diamonds mean money for this art
D G#m7(11) F#m
But that's not the shape of my heart

[Primeira Parte]

F#m C#m/E Bm/D C#7(11) C#7
He may play the jack of diamonds
D/F# C#m/E Bm/D C#7(11) C#7
He may lay the queen of spades
D6 A5 C#
He may conceal a king in his hand
D G#m7(11) F#m
While the memory of it fades

[Refrão]

F#m C#m/E Bm/D C#7(11) C#7
I know that the spades are swords of a soldier
D/F# C#m/E Bm/D C#7(11) C#7
I know that the clubs are weapons of war
D6 A5 C#
I know that diamonds mean money for this art
D G#m7(11) F#m
But that's not the shape of my heart
D G#m7(11)
But that's not the shape, the shape of my heart

[Ponte] C#m G#m/B F#m/A G#7(11) G#7
A/C# G#m/B F#m/A G#7(11) G#7
A6 E G# A G#4 C#m C#m7
A G#4 A9

C#m G#m/B F#m/A G#7(11) G#7
E|------------------------------------------|
B|------------------------------------------|
G|-9-----9----8-----8----6-----6----6---5---|
D|-----6----------6----------4--------4-----|
A|------------------------------------------|
E|---9-----7----7-----5----5-----5--4-------|

A/C# G#m/B F#m/A G#7(11) G#7
E|------------------------------------------|
B|------------------------------------------|
G|-9-----9----8-----8----6-----6----6---5---|
D|-----7----------6----------4--------4-----|
A|------------------------------------------|
E|---9-----7----7-----5----5-----5--4-------|

A6 E G#
E|------------------------------------------|
B|-----------5------------------------------|
G|-------6-----6---------1------5-----------|
D|-----4---4-----4------------6-------------|
A|-----------------------2------------------|
E|-4-5-------------5--0----4---------------|

A G#4 C#m C#m7
E|-5-5-5--4-4--4-4--4-4-4-4-4---------------|
B|-5-5-5--4-4--5-5--5-5-5-5-5---------------|
G|-6-6-6--6-6--6-6--4-4-4-4-4---------------|
D|-7-7-7--6-6--6-6--6-6-6-6-6---------------|
A|-7-7-7--6-6--4-4--4-4-4-4-4---------------|
E|-5-5-5--4-4-------------------------------|
? ? ? ? ? ? ? ? ? ? ? ?

A G4 A9
E|-5-5-5--4-4----0--------------------------|
B|-5-5-5--4-4----0--------------------------|
G|-6-6-6--6-6----2--------------------------|
D|-7-7-7--6-6----2--------------------------|
A|-7-7-7--6-6----0--------------------------|
E|-5-5-5--4-4-------------------------------|
? ? ? ? ? ?

[Primeira Parte]

F#m C#m/E Bm/D C#7(11) C#7
And if I told you that I loved you
D/F# C#m/E Bm/D C#7(11) C#7
You'd maybe think there's something wrong
D6 A5 C#
I'm not a man of too many faces
D G#m7(11) F#m
The mask I wear is one

F#m C#m/E Bm/D C#7(11) C#7
Those who speak know nothing
D/F# C#m/E Bm/D
And find out to their cost
D6 A5 C#
Like those who curse their luck in too many places
D G#m7(11) F#m
And those who fear are lost

[Refrão]

F#m C#m/E Bm/D C#7(11) C#7
I know that the spades are swords of a soldier
D/F# C#m/E Bm/D C#7(11) C#7
I know that the clubs are weapons of war
D6 A5 C#
I know that diamonds mean money for this art
D G#m7(11) F#m
But that's not the shape of my heart
D G#m7(11) F#m
But that's not the shape of my heart
D G#m7(11)
That's not the shape, the shape of my heart

[Final] F#m C#m/E Bm/D C#7(11) C#7
Bm A G#° C#7(b13) F#m

F#m C#m/E Bm/D C#7(11) C#7
E|------------------------------------------|
B|-10-----10----9-----9----7-----7----7---6-|
G|------6-----------6----------4--------4---|
D|------------------------------------------|
A|----9------7----7-----5----5-----5--4-----|
E|------------------------------------------|

Bm A G#° C#7(b13)
E|----------------------------------------4-|
B|-3-----3----2-----2-------------------6---|
G|-----------------------4-----4------4-----|
D|-----4----------2-----------------7-------|
A|---2-----0----0------------5---4----------|
E|--------------------4----4----------------|

F#m
E|-4----------------------------------------|
B|-4----------------------------------------|
G|-2----------------------------------------|
D|-4----------------------------------------|
A|-4----------------------------------------|
E|-2----------------------------------------|

ACORDES PARA GUITARRA

PIANO UKELELE
F#m
C#m/E
Bm/D
C#11
C#7
D/F#
D6
A5
C#
D
G#m11
C#m
G#m/B
F#m/A
G#7
A/C#
A6
E
G#
A
G#4
C#m7
A9
G4
Bm
G#dim
C#7b13


COMENTARIOS

Aún no hay comentarios,

¡escribe el primero!

Escribe una pregunta, duda o comentario sobre esta canción, te responderemos a la brevedad.

Las más tocadas de Sting

Toca una Canción al Azar de Sting
F#m
C#m/E
Bm/D
C#11
C#7
D/F#
D6
A5
C#
D
G#m11
C#m
G#m/B
F#m/A
G#7
A/C#
A6
E
G#
A
G#4
C#m7
A9
G4
Bm
G#dim
C#7b13