c ▷ THE OTHER WAY OF STOPPING: (The Police) Acordes para Guitarra, Piano & Ukelele

The Other Way Of Stopping (Acordes)

The Police

Full Álbum: Zenyattà Mondatta (1980)
Subida por Carlos23

Compartir


Imprimir FAQ
+A
-A

Texto

Desplazamiento

Transportador

Color de Fondo

Archivos

-A
+A
G|----------------------------------|
D|----------------------------------|
A|---2-3-----2-3-----2-3-----2-3----|
E|-0-----3-0-----3-0-----3-0-----3--|

G|----------------------------------|
D|----------------------------------|
A|---5-------5-2-3----5-------5-2-3-|
E|-5---3-5-2--------5---3-5-2-------|

G|----------------------------------|
D|----------------------------------|
A|---2-3-----2-3-----2-3-----2-3----|
E|-0-----3-0-----3-0-----3-0-----3--|

G|----------------------------------|
D|----------------------------------|
A|---5-------5-2-3----5-------5-2-3-|
E|-5---3-5-2--------5---3-5-2-------|

G|-----------------------------------------------|
D|-------------0-0-0-0-2---------------0-0-0-0-2-|
A|-----------2-----------2-----------2-----------|
E|-3-3-3-3-0---------------3-3-3-3-0-------------|x2

G|----------------------------------|
D|----------------------------------|
A|---2-3-----2-3-----2-3-----2-3----|
E|-0-----3-0-----3-0-----3-0-----3--|

G|----------------------------------|
D|----------------------------------|
A|---5-------5-2-3----5-------5-2-3-|
E|-5---3-5-2--------5---3-5-2-------|

G|----------------------------------|
D|----------------------------------|
A|---2-3-----2-3-----2-3-----2-3----|
E|-0-----3-0-----3-0-----3-0-----3--|

G|----------------------------------|
D|----------------------------------|
A|---5-------5-2-3----5-------5-2-3-|
E|-5---3-5-2--------5---3-5-2-------|

G|-----------------------------------------------|
D|-------------0-0-0-0-2---------------0-0-0-0-2-|
A|-----------2-----------2-----------2-----------|
E|-3-3-3-3-0---------------3-3-3-3-0-------------|x4

G|----------------------------------|
D|----------------------------------|
A|---5-------5-2-3----5-------5-2-3-|
E|-5---3-5-2--------5---3-5-2-------|

G|-----------------------------------------------|
D|-------------0-0-0-0-2---------------0-0-0-0-2-|
A|-----------2-----------2-----------2-----------|
E|-3-3-3-3-0---------------3-3-3-3-0-------------| To end.

Video Clip de The Other Way Of Stopping


ACORDES PARA GUITARRA

PIANO UKELELE


TOP 20: Las más tocadas de The Police


Toca una Canción al Azar de The Police

Acordes

Cerrar

20.17

x

58