Grey Lynn Park

The Veils

Acordes

Subida por jmgl2019



Cambiar Cifrado
Americano Latino

Cambiar Tonalidad
-1 +1

Partir Pantalla Imprimir FAQ

+A
-A


Ver solo la LETRA
	  Intro D Bm G 


hide this tabHide tabTabs for the chords (if you want to play exactly like the original version)
D Bm G
e|--5-----7---7-----|
B|--7-----7---8-----|
G|--7-----7---7-----|
D|------------------|
A|------------------|
E|------------------|
Though they say no heart can break......

G Em A
e|--7----7----5-----|
B|--8----8----5-----|
G|--7----9----6-----|
D|------------------|
A|------------------|
E|------------------|
Been through a thousand yesterdays...

G Bm
e|--3----2---------|
B|--3----3---------|
G|--4----4---------|
D|-----------------|
A|-----------------|
E|-----------------|
Now I'm walking in the dark.... tab

Verse
D Bm G
Though they say no heart can break
D Bm G
There ain't no end to trouble two can make
G Em
Been through a thousand yesterdays
A
Not every step I can retrace

tabchorus G Bm G
Now I'm walking in the dark ohhhhhh
Bm G Bm
In Grey Lynn Park ohhhhhh tab

Verse
D Bm G
I was born and then I died
D Bm G
Don't keep no record of either side
G Em
But somehow I lose these thoughts with ease
A
Under Pohutukawa trees

tabchorus G Bm G
Now I'm walking in the dark ohhhhhh
Bm G Bm G
In Grey Lynn Park ohhhhhhtab

Instrumental:

A C#m repeatedly till end

Solo
hide this tabHide tabriff:
e|------------------------------------------------------------------------|
B|------------------------------------------------------------------------|
G|------------------------------------------------------------------------|
D|------------------------------------------------------------------------|
A|-0-0~-0-2-4~-442200-0~-0-2---------0-0~-0-2-4~-442200-0~-0-2------------|
E|---------------------------4~-44220--------------------------4~-44220---| tab

Outro:
(with full tremolo effect on your stompbox)
hide this tabHide tab
e|-17~---20--17~-17-------17---20-17-17|
B|----18-----18~-18----18~--18-------18| Repeat the second bar till the end
G|-------------------19----------------|
D|-------------------------------------|
A|-------------------------------------|
E|-------------------------------------|tab

NUEVO FORO DE MÚSICA

¿Tienes alguna duda, consulta, pregunta, consejo o algo para compartir sobre esta canción?

¡Puedes abrir un hilo en el FORO para que la comunidad te ayude! Hacer una pregunta

ACORDES PARA GUITARRA

PIANO UKELELE
D
Bm
G
Em
A
C#m


Las más tocadas de The Veils

D
Bm
G
Em
A
C#m