All In The Mind
The Verve
Acordes

Subida por VYNZETT



Cambiar Cifrado
Americano Latino

Cambiar Tonalidad
-1 +1

Partir Pantalla Imprimir FAQ

+A
-A


Ver solo la LETRA
Bend string
------------------------------------------------------------------------|
------------------------------------------------------------------------|
6/--/--/----------------5-----------------------5--7-----------------|
------------------7--5--7-----7--5--7-----7--5--7--------5--7-----7-----|
---------------0-----------------------0-----------------------0--------|
------------------------------------------------------------------------|

So I got in the car... You got the money..
Slide down
-------------------------------------------------------------23-----|
----------------------------------------------106----------------------|
------5-------------------7^--7-----7--5h7p5----------------------------|
5--7-----7--5--7-------5------------------------------------------------|
------------------5/7-------------------------------12----------------|
------------------------------------------------------------------------|


Five years later on...
------------------------------------------------------------------------|
--------8-------7-------5-----------------------------------------------|
---7/8-----87-----75----------------------------------5---------------|
------------------------------5h7--5h7-----5h7-----5h7-----7--7--7------|
---------------------------0--------------------0-----------------------|
------------------------------------------------------------------------|


You were born to...
------------------------------------------------------------------------|
------------------------------------------------------------------------|
----------12/14---------12/14--14p12---------14p12---------14p12--------|
7--12/14---------12/14----------------14p12---------14p12---------14----|
------------------------------------------------------------------------|
------------------------------------------------------------------------|


Because its all inside
------------------------------------------------------------------------|
------------------------------------------------------------------------|
-----14p12---------14--14--12------------------14--12-------------------|
p12---------14p12--------------12--10--14--------------12--10--14-------|
-------------------------------------------12---------------------------|
------------------------------------------------------------------------|


I was born to fly....Pretty high..
------------------------------------------------------------------------|
------------------------------------------------------------------------|
----14--12------------------14--12------------------------------5-------|
------------12--10--14--------------12--10--14---------7--5--7-----7----|
12----------------------12----------------------12--0-------------------|
------------------------------------------------------------------------|

------------------------------------------------------------------------|
------------------------------------------------------------------------|
------------------5--7--------------------5-----------7^--7p5-----------|
5--7-----7--5--7--------5--7-----7--5--7-----7--5--7-----------7p5------|
------0-----------------------0-----------------------------------------|
------------------------------------------------------------------------|


Five years later on
------------------------------------------------------------------------|
------------------------------------------------------------------------|
---------5-------5h7--5-------5h7--5-------5h7--5-------5h7--5----------|
7--7--------5h7----------5h7----------5h7----------5h7----------5h7-----|
------0-----------------------------------------------------------------|
------------------------------------------------------------------------|


Because its all inside...
------------------------------------------------------------------------|
------------------------------------------------------------------------|
5h7--5-------5h7--7--7--7--7--14--12------------------14--12------------|
--------5h7---------------------------12--10--14--------------12--10----|
--------------------------------------------------12--------------------|
------------------------------------------------------------------------|


Get the slide out
------------------------------------------------------------------------|
--------------------------------------------------------1513-----15----|
--------14--12------------------14--12-------------------------12/14----|
14--------------12--10--14--------------12--10--14----------------------|
----12----------------------12----------------------12------------------|
------------------------------------------------------------------------|


Still sliding Because its all inside
------------------------------------------------------------------------|
/1713--1311/1--------------------------------------------------------|
--------1/14121414--12------------------14--12------------------14------|
------------------------12--10--14--------------12--10--14--------------|
------------------------------------12----------------------12----------|
------------------------------------------------------------------------|

------------------------------------------------------------------------|
------------------------------------------------------------------------|
12------------------14--12------------------14--12----------------------|
----12--10--14--------------12--10--14--------------12--10--14----------|
----------------12----------------------12----------------------12------|
------------------------------------------------------------------------|


So why waste your time..
------------------------------------------------------------------------|
------------------------------------------------------------------------|
14--12------------------14--12------------------14--12------------------|
--------12--10--14--------------12--10--14--------------12--10--14------|
--------------------12----------------------12--------------------------|
------------------------------------------------------------------------|


Real Slide Get in the car..
------------------------------------------------------------------------|
----10------------------------------------------------108-------------|
-------------------------------------------7--9--9/12--------9--7^------|
--------------------------------5--7--7/9-------------------------------|
12-----1211109--7-------5/7------------------------------------------|
----------------------3/5-----------------------------------------------|
Slide w/finger


------------------------------------------------------------------------|
------------------------------------------------------------------------|
7^p5-------14--12------------------14--12------------------14--12-------|
------5h7----------12--10--14--------------12--10--14-------------------|
-------------------------------12----------------------12---------------|
------------------------------------------------------------------------|


Optional
------------------------------------------------------------------------|
--------------------------------------------------------10--12--13------|
----------------14--12--------------------------------------------------|
12--10--14--------------12--10--14------7^--7^--7^--7^------------------|
------------12----------------------12----------------------------------|
------------------------------------------------------------------------|

------------------------------------------------------------------------|
10--12--13--10--12--13--10--12--13--10--12--13--15--10--12--13--10------|
------------------------------------------------------------------------|
------------------------------------------------------------------------|
------------------------------------------------------------------------|
------------------------------------------------------------------------|

------------------------------------------------------------------------|
12--13--10--12--13--10--12--13--10--12--13--10--12--13--15--------------|
------------------------------------------------------------------------|
------------------------------------------------------------7/--/------|
------------------------------------------------------------------------|
------------------------------------------------------------------------|

ACORDES PARA GUITARRA

PIANO UKELELE


COMENTARIOS

Aún no hay comentarios,

¡escribe el primero!

Escribe una pregunta, duda o comentario sobre esta canción, te responderemos a la brevedad.

Las más tocadas de The Verve

Toca una Canción al Azar de The Verve