Star Sail
The Verve
Acordes

Subida por ORIEL
Álbum: A Storm in Heaven ( 1993)


Más Versiones
Ver. 2

Cambiar Cifrado
Americano Latino

Cambiar Tonalidad
-1 +1

Partir Pantalla Imprimir FAQ

+A
-A


Ver solo la LETRA


Album: A Storm In Heaven
Transcriber: T. Barefoot
Added By Mikhailo

The tracks on A Storm In Heaven don't lend themselves well
to transcription. But maybe that's one reason why I think
this disc so great.


Intro
E---0---
B---2---
G---2--- Chord comes in with a quick volume swell,
D---2--- maybe using an envelope generator
A---0---
E---0---


Riff 1.
(with echo)
E-------|----------------------------------------------------
B-------|-5-5-----5-5-----5-5----5/7---2---2-2-----2-2------
G-----0-|-----0-0-----0-0---- 0-0 --------------4-4-----4-4--
D-------|----------------------------------------------------
A-- 0---|---------------------------------0------------------
E-------|----------------------------------------------------
^ ^ ^ ^ ^ ^ ^ ^ ^ ^ ^ ^ ^


E-------------------|--------->
B---2-2-----2---/5--|-5-5----->
G-------4-4---0-----|-----0-0-> repeat
D-------------------|--------->
A-----------------0-|--------->
E-------------------|--------->
^ ^ ^ ^ ^ ^


Riff 2.
(with chorus effect)
E-----------0------------------------------12----------------
B------------0------------------------------12---------------
G-------------6---------------0--------------9---------------
D--------------7-----4-----4-----4------------9-----4-----4--
A----0-----(0)----------5-----------0-----(0)----------5-----
E------------------------------------------------------------
^ ^ ^ ^ ^ ^ ^ ^


E----------------0------------------------------12-----|
B-----------------0------------------------------12----|
G---0--------------6---------------0--------------9----|
D------4------------7-----4-----4-----4------------9---|
A---------0-----(0)----------5-----------0-----(0)-----|
E------------------------------------------------------|
^ ^ ^ ^ ^ ^


"Solo"
These few notes are pure genius. The way the sound evolves
here is just incredible. A semi-hollow body guitar like a
Gibson ES series seems critical for reproducing this.

after "....crying out are you there?"

E-----------------------------------------------------------
B-----------------------------------------------------------
G-----------------------------------------------------------
D-----------------------------------------------------------
A-----------------------------------------------------------
E--/10---------------------5------------3-3-3-3-3-3-3/5---
^ ^ ^ ^ ^ ^ ^ ^ ^

E-----------------------------------------------------------
B-----------------------------------------------------------
G-----------------------------------------------------------
D-----------------------------------------------------------
A-----------------------------------------------------------
E------------------/10---------------------/12---------/14--
^ ^ ^ ^ ^ ^ ^ ^ ^ ^

E----------------------------------------
B----------------------------------------
G----------------------------------------
D----------------------------------------
A----------------------------------------
E---/15---5--------------------3/5-----
^ ^ ^ ^ ^ ^

ACORDES PARA GUITARRA

PIANO UKELELE


COMENTARIOS

Aún no hay comentarios,

¡escribe el primero!

Escribe una pregunta, duda o comentario sobre esta canción, te responderemos a la brevedad.

Las más tocadas de The Verve

Toca una Canción al Azar de The Verve