History
The Verve
Acordes

Subida por cuatrosobris
Álbum: A Northern Soul ( 1995)


Más Versiones
Ver. 2

Cambiar Cifrado
Americano Latino

Cambiar Tonalidad
-1 +1

Partir Pantalla Imprimir FAQ

+A
-A


Ver solo la LETRA
Tab by Vale'90

Verse:
Sol Re La Mi Sol Re La Mi
G---------------------------------------------------------------|
D--------0-0----------------------0-0---------------------------|
A---------------0-0---------------------0-0---------------------|
E--3-3---------------0-0--3-3---------------0-0-----------------|

Chorus:
Do Mim Do Re
G-------------------------------|
D---------------------0-0-------|
A--3-3---------3-3--------------|
E---------0-0-------------------|

Verse
Chorus
Verse
Chorus X2
Verse
ChorusX3
Verse
ChorusX6

ACORDES PARA GUITARRA

PIANO UKELELE


COMENTARIOS

Aún no hay comentarios,

¡escribe el primero!

Escribe una pregunta, duda o comentario sobre esta canción, te responderemos a la brevedad.

Las más tocadas de The Verve

Toca una Canción al Azar de The Verve