Compartir


Imprimir FAQ
+A
-A

Texto

Desplazamiento

Transportador

Color de Fondo

Archivos

-A
+A
E A D G B E 

Main Riff- 
e|--------------------------
b|--------------------------
g|--------------------------
d|----------2---------------
a|-2-2------2-2-5-----------
E|-0-0-3'B'-0-0-3-2-1'B'----}  ahhhhaaahhhaaahhhaah 
    .            . 
 
    Pre|- Chorus: 
e|--------------------------
b|--------------------------
g|--------------------------
d|-2--------2-m-------------
a|-2-2------2-2-5/--2-------
E|-0-0-3^---0-0-3/2-1-------}  ahhhhaaahhhaaahhhaah 
    .            . 
 
    Chourus: 
e|--------------------------
b|--------6-----------------
g|-5555-6666----------------}  ahhhhaaahhhaaahhhaah 
d|-5555-6666----------------
a|-2222-4444----------------
E|--------------------------}

HERRAMIENTAS ACORDESWEB:


LETRA DE LA CANCIÓN:

Ver la letra sola (sin acordes)

OTRAS VERSIONES DE LA MISMA CANCIÓN:

Ver. 2 Ver. 3 Ver. 4 Ver. 5 Ver. 6

DESCARGAR PDF / IMPRIMIR CANCIÓN



ACORDES PARA GUITARRA

PIANO UKELELE
E
A
D
G
B


TOP 20: Las más tocadas de The White Stripes


Acordes

Cerrar
E
A
D
G
B

12.17


115