The Hardest Button to Button (Acordes)

The White Stripes

Full Álbum: Elephant (2003)
Subida por Szemusic

Compartir


Imprimir FAQ
+A
-A

Texto

Desplazamiento

Transportador

Color de Fondo

Archivos

-A
+A
Acordes: A5 C5 B5 D5 A#5 (todos Power Acordes)


      A5      C5      A5      C5      A5      C5       B5      D5
E|-----------------------------------------------------------------|
B|-----------------------------------------------------------------|
G|-----------5---------------5---------------5--------4-------7----|
D|---7--------5------7--------5------7--------5--------4-------7---|  3X
A|----7----3---3------7----3---3------7----3---3----2---2---5---5--|
E|-5---5-----------5---5-----------5---5---------------------------|

  We started living in an old house
  My ma gave birth and we were checking it out
  It was a baby boy
  So we bought him a toy
  It was a ray gun
  And it was 1981
  We named him Baby

      A5      C5      A5      C5      A5      C5       B5      A#5
E|-----------------------------------------------------------------|
B|-----------------------------------------------------------------|
G|-----------5---------------5---------------5--------4-------3----|
D|---7--------5------7--------5------7--------5--------4-------3---|  1X
A|----7----3---3------7----3---3------7----3---3----2---2---1---1--|
E|-5---5-----------5---5-----------5---5---------------------------|

  He had a toothache
  He started crying
  It sounded like an earthquake
  It didn't last long
  Because I stopped it
  I grabbed a rag doll
  And stuck some little pins in it

        A5       C5       A5       C5       A5       C5       B5      A#5
E|--------------------------------------------------------------------------|
B|--------------------------------------------------------------------------|
G|----------55---555----------55---555----------55---555-44---444-33---333--|
D|-77---777-55---555-77---777-55---555-77---777-55---555-44---444-33---333--|  1X
A|-77---777-33---333-77---777-33---333-77---777-33---333-22---222-11---111--|
E|-55---555----------55---555----------55---555-----------------------------|

  Now we're a family
  And we're alright now
  We got money
  And a little place to fight now
  We don't know you
  And we don't owe you
  But if you see us around
  I got something else to show you

      A5     C5     A5     C5     A5     C5     B5     A#5
E|--------------------------------------------------------|
B|--------------------------------------------------------|
G|--------5555----------5555----------5555---4444---3333--|
D|-7777---5555---7777---5555---7777---5555---4444---3333--|  1X
A|-7777---3333---7777---3333---7777---3333---2222---1111--|
E|-5555----------5555----------5555-----------------------|

      A5      C5      A5      C5      A5      C5       B5      D5
E|-----------------------------------------------------------------|
B|-----------------------------------------------------------------|
G|-----------5---------------5---------------5--------4-------7----|
D|---7--------5------7--------5------7--------5--------4-------7---|  1X
A|----7----3---3------7----3---3------7----3---3----2---2---5---5--|
E|-5---5-----------5---5-----------5---5---------------------------|

      A5      C5      A5      C5      A5      C5       B5      A#5
E|-----------------------------------------------------------------|
B|-----------------------------------------------------------------|
G|-----------5---------------5---------------5--------4-------3----|
D|---7--------5------7--------5------7--------5--------4-------3---|  1X
A|----7----3---3------7----3---3------7----3---3----2---2---1---1--|
E|-5---5-----------5---5-----------5---5---------------------------|

  Now it's easy
  When you don't know better
  You think it's sleazy?
  Then put it in a short letter
  We keep warm
  But there's just something wrong with you
  Just feel like you're the hardest little button to button

        A5       C5       A5       C5       A5       C5       B5      A#5
E|--------------------------------------------------------------------------|
B|--------------------------------------------------------------------------|
G|----------55---555----------55---555----------55---555-44---444-33---333--|
D|-77---777-55---555-77---777-55---555-77---777-55---555-44---444-33---333--|  1X
A|-77---777-33---333-77---777-33---333-77---777-33---333-22---222-11---111--|
E|-55---555----------55---555----------55---555-----------------------------|

  I had opinions
  That didn't matter
  I had a brain
  That felt like pancake batter
  I got a backyard
  With nothing in it
  Except a stick
  A dog
  And a box with something in it

      A5     C5     A5     C5     A5     C5     A5     C5
E|--------------------------------------------------------|
B|--------------------------------------------------------|
G|--------5555----------5555----------5555----------5555--|
D|-7777---5555---7777---5555---7777---5555---7777---5555--|  1X
A|-7777---3333---7777---3333---7777---3333---7777---3333--|
E|-5555----------5555----------5555----------5555---------|

  The hardest button to button
  The hardest button to button
  The hardest button to button
  The hardest button to button Ooh Oow

      A5     C5     A5     C5     A5     C5     B5     A#5
E|--------------------------------------------------------|
B|--------------------------------------------------------|
G|--------5555----------5555----------5555---4444---3333--|
D|-7777---5555---7777---5555---7777---5555---4444---3333--|  1X
A|-7777---3333---7777---3333---7777---3333---2222---1111--|
E|-5555----------5555----------5555-----------------------|

  The hardest button to button
  The hardest button to button Ooh Oow
  The hardest button to button

      A5             C5              A5             C5
E|----------------------------------------------------------------
B|----------------------------------------------------------------
G|----------------5555---------------------------5555-------------
D|-7777-----------5555------------7777-----------5555-------------
A|-7777-----------3333------------7777-----------3333-------------
E|-5555---------------------------5555----------------------------

      A5             C5             A5             C5              A5
E|--------------------------------------------------------------------|
B|--------------------------------------------------------------------|
G|----------------5555--------------------------5555------------------|
D|-7777-----------5555-----------7777-----------5555------------7777--|  1X
A|-7777-----------3333-----------7777-----------3333------------7777--|
E|-5555--------------------------5555---------------------------5555--|

HERRAMIENTAS ACORDESWEB:


LETRA DE LA CANCIÓN:

Ver la letra sola (sin acordes)

OTRAS VERSIONES DE LA MISMA CANCIÓN:

Ver. 2 Ver. 3 Ver. 4 Ver. 5 Ver. 6

DESCARGAR PDF / IMPRIMIR CANCIÓN



ACORDES PARA GUITARRA

PIANO UKELELE
A5
C5
B5
D5
A#5


TOP 20: Las más tocadas de The White Stripes


Acordes

Cerrar
A5
C5
B5
D5
A#5

03.49


200