Compartir


Imprimir FAQ
+A
-A

Texto

Desplazamiento

Transportador

Color de Fondo

Archivos

-A
+A
Ok well this is basically just showing the chords used in the intro. REMEMBER downtune 
A string to G. Play with a slide.

Have fun.

||----------------------------------------------------------------------|
||o---------------------------------------------------------------------|
||------2-----4-----5-----7-/10-9-------12-------14-------10-----9-/7-5-|
||----2-----4-----5-----7---/10-9----12-------14-------10------9---/7-5-|
||o-2-----4-----5-----7-----/10-9-12-------14-------10-------9-----/7-5-|
||----------------------------------------------------------------------|

|------------------------------------------------------||
|-----------------------------------------------------o||
|-----9-------10-----7-----5-/9-5----------------------||
|---9------10------7-----5---/9-5-2-2-4-2-4-2-4-2-4---||
|-9-----10-------7-----5-----/9-5-2-2-4-2-4-2-4-2-4--o||
|------------------------------------------------------||

||--------------------------------|------------------------------------------|
||o-------------------------------|------------------------------------------|
||--2-2-2-4-4-4-5-5-5-7-7-7-/10-9-|-12-12-12-14-14-14-10-10-10-9-9-9-/7-5----|
||--2-2-2-4-4-4-5-5-5-7-7-7-/10-9-|-12-12-12-14-14-14-10-10-10-9-9-9-/7-5----|
||o-2-2-2-4-4-4-5-5-5-7-7-7-/10-9-|-12-12-12-14-14-14-10-10-10-9-9-9-/7-5----|
||--------------------------------|------------------------------------------|

|---------------------------------|------------------------||
|---------------------------------|-----------------------o||
|-9-9-9-10-10-10-7-7-7-5-5-5-/9-5-|-2-2-4-2-4-2-4-2-4------||
|-9-9-9-10-10-10-7-7-7-5-5-5-/9-5-|-2-2-4-2-4-2-4-2-4-----||
|-9-9-9-10-10-10-7-7-7-5-5-5-/9-5-|-2-2-4-2-4-2-4-2-4----o||
|---------------------------------|------------------------||

HERRAMIENTAS ACORDESWEB:


LETRA DE LA CANCIÓN:

Ver la letra sola (sin acordes)

OTRAS VERSIONES DE LA MISMA CANCIÓN:

Ver. 2 Ver. 3 Ver. 4 Ver. 5 Ver. 6

DESCARGAR PDF / IMPRIMIR CANCIÓN



ACORDES PARA GUITARRA

PIANO UKELELE


TOP 20: Las más tocadas de The White Stripes


Acordes

Cerrar

22.45


288