Little Cream Soda (Acordes)

The White Stripes

Full Álbum: Icky Thump (2007)
Subida por mbacchetta

Compartir


Imprimir FAQ
+A
-A

Texto

Desplazamiento

Transportador

Color de Fondo

Archivos

-A
+A
[Intro]

E|------------------------|
B|------------------------|
G|--9----9----9-----------|
D|--9----9----9----10--9--|
A|--7----7----7----10--9--|
E|-----------------8---7--|

[Main]
E|-----------------8-7------------------------|
B|---------------------------------------8-5--|
G|--9--9-9--9-9-9---------9--9-9--9-9-9-------|
D|--9--9-9--9-9-9---------9--9-9--9-9-9-------|
A|--7--7-7--7-7-7---------7--7-7--7-7-7-------|
E|--------------------------------------------|
    ^            ^
    |Check rhythm|
    |on this part|

E|-----------------8-7------------------------|
B|---------------------------------------8---|
G|--9--9-9--9-9-9---------9--9-9--9-9-9--12--|
D|--9--9-9--9-9-9---------9--9-9--9-9-9-------|
A|--7--7-7--7-7-7---------7--7-7--7-7-7-------|
E|--------------------------------------------|

E|-----------------8-7------------------------|
B|---------------------------------------8-5--|
G|--9--9-9--9-9-9---------9--9-9--9-9-9-------|
D|--9--9-9--9-9-9---------9--9-9--9-9-9-------|
A|--7--7-7--7-7-7---------7--7-7--7-7-7-------|
E|--------------------------------------------|

E|-----------------8-7-------------------------|
B|--------------------------------------8-8---|
G|--9--9-9--9-9-9-------- 9--9-9--9-9-9-12-12-|
D|--9--9-9--9-9-9---------9--9-9--9-9-9--------|
A|--7--7-7--7-7-7---------7--7-7--7-7-7--------|
E|---------------------------------------------|

E|----------------7h8p7-0--------------7h8p7-0---------|
B|---------------------------------------------5h8p5-0-|
G|--9--9-9--9-9-9---------9--9-9--9-9-9----------------|
D|--9--9-9--9-9-9---------9--9-9--9-9-9----------------|
A|--7--7-7--7-7-7---------7--7-7--7-7-7----------------|
E|-----------------------------------------------------|

E|----------------7h8p7-0-----------------------|
B|---------------------------------------8-8---|
G|--9--9-9--9-9-9---------9--9-9--9-9-9--12-12-|
D|--9--9-9--9-9-9---------9--9-9--9-9-9---------|
A|--7--7-7--7-7-7---------7--7-7--7-7-7---------|
E|----------------------------------------------|

E|----------------7h8p7-0--------------7h8p7-0---------|
B|---------------------------------------------5h8p5-0-|
G|--9--9-9--9-9-9---------9--9-9--9-9-9----------------|
D|--9--9-9--9-9-9---------9--9-9--9-9-9----------------|
A|--7--7-7--7-7-7---------7--7-7--7-7-7----------------|
E|-----------------------------------------------------|

E|----------------7h8p7-0-7h8p7------------------------|
B|----------------------------------------------8-8---|
G|--9--9-9--9-9-9----------------9--9-9--9-9-9--12-12-|
D|--9--9-9--9-9-9----------------9--9-9--9-9-9---------|
A|--7--7-7--7-7-7----------------7--7-7--7-7-7---------|
E|-----------------------------------------------------|

[Break]
E|------------------------|
B|------------------------|
G|--9----9----9-----------| Play 4 times
D|--9----9----9----10--9--|
A|--7----7----7----10--9--|
E|-----------------8---7--|

[Chorus]
E|-----------------------------------|
B|-----------------------------------|
G|-----------------------------------| Play 8 times
D|-----------------------------------|
A|-------2/-3-2---------------------|
E|--0*---------------0--3-3--0--3--3-|

[Main]
E|-----------------8-7------------------------|
B|---------------------------------------8-5--|
G|--9--9-9--9-9-9---------9--9-9--9-9-9-------|
D|--9--9-9--9-9-9---------9--9-9--9-9-9-------|
A|--7--7-7--7-7-7---------7--7-7--7-7-7-------|
E|--------------------------------------------|

E|-----------------8-7-------------------------|
B|--------------------------------------8-8---|
G|--9--9-9--9-9-9-------- 9--9-9--9-9-9-12-12-|
D|--9--9-9--9-9-9---------9--9-9--9-9-9--------|
A|--7--7-7--7-7-7---------7--7-7--7-7-7--------|
E|---------------------------------------------|

E|-----------------8-7------------------------|
B|---------------------------------------8-5--|
G|--9--9-9--9-9-9---------9--9-9--9-9-9-------|
D|--9--9-9--9-9-9---------9--9-9--9-9-9-------|
A|--7--7-7--7-7-7---------7--7-7--7-7-7-------|
E|--------------------------------------------|

E|-----------------8-7-------------------------|
B|--------------------------------------8-8---|
G|--9--9-9--9-9-9-------- 9--9-9--9-9-9-12-12-|
D|--9--9-9--9-9-9---------9--9-9--9-9-9--------|
A|--7--7-7--7-7-7---------7--7-7--7-7-7--------|
E|---------------------------------------------|

E|----------------7h8p7-0--------------7h8p7-0---------|
B|---------------------------------------------5h8p5-0-|
G|--9--9-9--9-9-9---------9--9-9--9-9-9----------------|
D|--9--9-9--9-9-9---------9--9-9--9-9-9----------------|
A|--7--7-7--7-7-7---------7--7-7--7-7-7----------------|
E|-----------------------------------------------------|

E|----------------8h10p8-0----------------------|
B|---------------------------------------8-8---|
G|--9--9-9--9-9-9---------9--9-9--9-9-9--12-12-|
D|--9--9-9--9-9-9---------9--9-9--9-9-9---------|
A|--7--7-7--7-7-7---------7--7-7--7-7-7---------|
E|----------------------------------------------|

E|----------------7h8p7-0--------------7h8p7-0---------|
B|---------------------------------------------5h8p5-0-|
G|--9--9-9--9-9-9---------9--9-9--9-9-9----------------|
D|--9--9-9--9-9-9---------9--9-9--9-9-9----------------|
A|--7--7-7--7-7-7---------7--7-7--7-7-7----------------|
E|-----------------------------------------------------|

E|----------------8h10p8-0---------------8-8---|
B|---------------------------------------12-12-|
G|--9--9-9--9-9-9---------9--9-9--9-9-9---------|
D|--9--9-9--9-9-9---------9--9-9--9-9-9---------|
A|--7--7-7--7-7-7---------7--7-7--7-7-7---------|
E|----------------------------------------------|

[Break]
E|------------------------|
B|------------------------|
G|--9----9----9-----------| Play 4 times
D|--9----9----9----10--9--|
A|--7----7----7----10--9--|
E|-----------------8---7--|

[Chorus]
E|-----------------------------------|
B|-----------------------------------|
G|-----------------------------------| Play 4 times
D|-----------------------------------|
A|-------2/-3-2---------------------|
E|--0*---------------0--3-3--0--3--3-|

[Break]
E|---------------------|
B|---------------------|
G|---------------------| Play 7 times
D|---------------------|
A|---------------------|
E|--0--0--0--0-0--3----|
    x  x  x  x x  x

E|-----------|----------------|  
B|-----------|----------------|
G|-----------|--------------9-|
D|-----------|--9--10--9----9-|
A|-----------|--9--10--9----7-|
E|--0--0--0--|--7--8---7------|
    x  x  x  
             ^                ^
             |Play 8 times    |

[Outro]
E|-----------------8-7------------------------|
B|---------------------------------------8-5--|
G|--9--9-9--9-9-9---------9--9-9--9-9-9-------|
D|--9--9-9--9-9-9---------9--9-9--9-9-9-------|
A|--7--7-7--7-7-7---------7--7-7--7-7-7-------|
E|--------------------------------------------|

E|-----------------8-7------------------------|
B|---------------------------------------8---|
G|--9--9-9--9-9-9---------9--9-9--9-9-9--12--|
D|--9--9-9--9-9-9---------9--9-9--9-9-9-------|
A|--7--7-7--7-7-7---------7--7-7--7-7-7-------|
E|--------------------------------------------|

E|-----------------8-7------------------------|
B|---------------------------------------8-5--|
G|--9--9-9--9-9-9---------9--9-9--9-9-9-------|
D|--9--9-9--9-9-9---------9--9-9--9-9-9-------|
A|--7--7-7--7-7-7---------7--7-7--7-7-7-------|
E|--------------------------------------------|

E|-----------------8-7-------------------------|
B|--------------------------------------8-8---|
G|--9--9-9--9-9-9-------- 9--9-9--9-9-9-12-12-|
D|--9--9-9--9-9-9---------9--9-9--9-9-9--------|
A|--7--7-7--7-7-7---------7--7-7--7-7-7--------|
E|---------------------------------------------|

E|----------------7h8p7-0--------------7h8p7-0---------|
B|---------------------------------------------5h8p5-0-|
G|--9--9-9--9-9-9---------9--9-9--9-9-9----------------|
D|--9--9-9--9-9-9---------9--9-9--9-9-9----------------|
A|--7--7-7--7-7-7---------7--7-7--7-7-7----------------|
E|-----------------------------------------------------|

E|----------------7h8p7-0------------------------------|
B|----------------------------------------------8------|
G|--9--9-9--9-9-9----------------9--9-9--9-9-9--12----|
D|--9--9-9--9-9-9----------------9--9-9--9-9-9---------|
A|--7--7-7--7-7-7----------------7--7-7--7-7-7---------|
E|-----------------------------------------------------|

E|----------------7h8p7-0---------------------------------|
B|----------------------------------------3h5p3-0-5h8p5-0-|
G|--9--9-9--9-9-9---------9--9-9--9-9-9-------------------|
D|--9--9-9--9-9-9---------9--9-9--9-9-9-------------------|
A|--7--7-7--7-7-7---------7--7-7--7-7-7-------------------|
E|--------------------------------------------------------|

E|---------------------------------|
B|-----------------3h5p3-0-5h8p5-0-|
G|---9-9--9-9-9--------------------| Play 3 times
D|---9-9--9-9-9--------------------|
A|---7-7--7-7-7--------------------|
E|---------------------------------|

[End on]
E|------|
B|------|
G|--9---|
D|--9---|
A|--7---|
E|------|

[Then]
E|-----------|
B|-----------|
G|---------9-| Play 6 times
D|--10--9--9-|
A|--10--9--7-|
E|--8---7----|

HERRAMIENTAS ACORDESWEB:


LETRA DE LA CANCIÓN:

Ver la letra sola (sin acordes)

OTRAS VERSIONES DE LA MISMA CANCIÓN:

Ver. 2 Ver. 3 Ver. 4 Ver. 5 Ver. 6

DESCARGAR PDF / IMPRIMIR CANCIÓN



ACORDES PARA GUITARRA

PIANO UKELELE


TOP 20: Las más tocadas de The White Stripes


Acordes

Cerrar

00.02

x

160