Sister Do You Know My Name (Acordes)

The White Stripes

Full Álbum: De Stijl (2000)
Subida por RIKIAGUIRRE

Compartir


Imprimir FAQ
+A
-A

Texto

Desplazamiento

Transportador

Color de Fondo

Archivos

-A
+A
Riff 1:
E|-------------------------------------|
A|-------------------------------------|
G|-------------------------7-----------|
D|--0--0--0000-0--0--0-5/7--7-4/5-4----|
A|--0--0--0000-0--0--0--------------5--|
E|--0--0--0000-0--0--0-----------------|
Passagem:
E|--------------------------------|
A|--------------------------------|
G|--------------------------------|
D|--0--0--0000-0-0000-0-00-0-0-0--|
A|--0--0--0000-0-0000-0-00-0-0-0--|
E|--0--0--0000-0-0000-0-00-0-0-0--|
Riff 3:
E|-------------------------------------------------|
A|-------------------------------------------------|
G|-------------------------------------------------|
D|--4/5--5-5555-5--5--5-5555-5--5/7--7--7777-7--7--|
A|--4/5--5-5555-5--5--5-5555-5--5/7--7--7777-7--7--|
E|--4/5--5-5555-5--5--5-5555-5--5/7--7--7777-7--7--|
Riff 4:
E|------7--4/5-4---|
A|--5/7--7------5--|
G|-----------------|
D|-----------------|
A|-----------------|
E|-----------------|
Variação 1:
E|-------------------------------------|
A|-------------------------------------|
G|-------------------------7-----------|
D|--0--0--0000-0--0--0-5/7--7-4/5-4/5--|
A|--0--0--0000-0--0--0-----------------|
E|--0--0--0000-0--0--0-----------------|
Variação 2:
E|----------------------------------------|
A|----------------------------------------|
G|-------------------------7--------------|
D|--0--0--0000-0--0--0-5/7----4/5-4/5~~~--|
A|--0--0--0000-0--0--0--------------------|
E|--0--0--0000-0--0--0--------------------|
Variação 3:
E|------7-----------|
A|--5/7--7----------|
G|------------------|
D|---------4/5-4----|
A|---------------5--|
E|------------------|
Variação 4:
E|----------------------------------|
A|----------------------------------|
G|----------------------------------|
D|--0--0--0000-0-0000-0--00-33--55--|
A|--0--0--0000-0-0000-0--00-33--55--|
E|--0--0--0000-0-0000-0--00-33--55--|
Variação 5:
E|---------------------------------------------------|
A|---------------------------------------------------|
G|---------------------------------------------------|
D|--3-4-5--5-5555-5--5--5-5555-5--5/7--7--7777-7--7--|
A|--3-4-5--5-5555-5--5--5-5555-5--5/7--7--7777-7--7--|
E|--3-4-5--5-5555-5--5--5-5555-5--5/7--7--7777-7--7--|
Final:
E|-----------------------|
A|-----------------------|
G|------7----------------|
D|--5/7--7-4/5-4---0~~~~-|
A|---------------5-0~~~~-|
E|-----------------0~~~~-|
         >
(Riff 1)(2x)

(Variação 1)
Well we're back in school again

(Riff 1)
and I don't really know anyone
I really want to be your friend

(Passagem)
cause I don't really know anyone

(Riff 3)
And the bus is pulling
up to your house
I wish you could be sitting here
next to me

(Riff 4)

(Riff 1) (2x)

(Riff 1)
i didn't see you at summer school

(Variação 2)
but I saw you at the corner store

(Riff 1)
and I don't want to break the rules

(Passagem)
cause I've broken them all before

(Riff 3)
But every time I see you
I wonder why
I don't break a couple rules
so that you'll notice me

(Riff 4)

(Riff 1)

(Variação 3)

(Variação 4)
Sister do you know my name?

(Passagem)
I've heard it before but I want you to know

(Variação 5)
I got a funny feeling
that it's gonna work out
cause now I see you sitting here
next to me

(Final)

HERRAMIENTAS ACORDESWEB:


LETRA DE LA CANCIÓN:

Ver la letra sola (sin acordes)

OTRAS VERSIONES DE LA MISMA CANCIÓN:

Ver. 2 Ver. 3 Ver. 4 Ver. 5 Ver. 6

DESCARGAR PDF / IMPRIMIR CANCIÓN



ACORDES PARA GUITARRA

PIANO UKELELE


TOP 20: Las más tocadas de The White Stripes


Acordes

Cerrar

00.51

x

166