Dile (Acordes)

Tru-la-la

Subida por rardFaila

Compartir


Imprimir FAQ
+A
-A

Texto

Desplazamiento

Transportador

Color de Fondo

Archivos

-A
+A
Tabulado: 30.10.2001 

La intro es bastante complicada de tocar pero con practica seguro
de que saldra bien.

Las notas con asterisco son tocadas con sejilla.

-----------------------------------------

Intro: Se divide en dos partes.

1ra parte: 
FA#    FA# x3
He!... He!

2da parte: Sol* Fa (Re4x2) Re Re9 Re Do*

3ra parte:(corte) (Re4*x3 Re*x2 Re9*x2 Re*x2)x2

Verso 1:
      SOL
El se cree,
                        SIm
no es el primero en conocerte,
                       LAm
que no hay nadie en tu mente,
                   RE
cuando le haces el amor.

Verso 2:
      SOL
El se cree,
                   SIm
el primero en descubrirte,
               LAm
en amarte y sentirte,
                RE
y encenderte de pasion.

Pre 1:
       LAm*
Se equivoca, 
                      SOL
al creer que el es el unico,
                FA
que conoce cada punto,
        REm        SOL
donde estallas de placer.

Pre 2:
       LAm
Se equivoca,
                   SOL
pobre ingenuo presumido,
                    FA
al creer que tus suspiros,
        REm      SOL
solo fueron para el.

Coro:
DO*
Dile,
    LAm          LAm7    SOL
que yo tamben fui buen amante,
                        FA
que no me importa sus alardes,
                 SOL
que nos quicimos a morir.
DO
Dile,
    LAm          LAm7   SOL
que yo te hice mujer un dia,
                      FA
que dibuje sobre tu cuerpo,
             SOL
un paisaje con mi amor.
     FA
Te conozco,
 SOL
tanto o mejor.

Solo:
             LAm                        SOL
e|-----------------|-----------------12---------|
B|------12-13------|--13----13----13----15------|
G|--/14-------14~--|-----14----14----14----12~--|
D|-----------------|----------------------------|
A|-----------------|----------------------------|
E|-----------------|----------------------------|

                          FA     REm     SOL
-----------------------|---------------
--12----12--------12~--|--13~------------
-----12----12--14------|----------------
-----------------------|-----------
-----------------------|------------
-----------------------|--------------------

Pre 2:

Coro:x2

Inter: Re*x2 Re4*x2 Sim Fax2 Sol*x2 Sim

Final: (corte) es tocado enmudando con la palma derecha
las cuerdas.

e|---------------------
B|---------------------------------
G|---------------------------
D|--7-4-----4------4-------
A|------6-----6-3--4-------------
E|--------7--------2----------------
    LAm*   LAm*    FA#     Y dile!!

HERRAMIENTAS ACORDESWEB:


LETRA DE LA CANCIÓN:

Ver la letra sola (sin acordes)

OTRAS VERSIONES DE LA MISMA CANCIÓN:

Ver. 2

DESCARGAR PDF / IMPRIMIR CANCIÓN



ACORDES PARA GUITARRA

PIANO UKELELE
F#
G
Bm
Am
D
Am
F
Dm
C
Am7
C


TOP 20: Las más tocadas de Tru-la-la


Toca una Canción al Azar de Tru-la-la

Acordes

Cerrar
F#
G
Bm
Am
D
Am
F
Dm
C
Am7
C

09.21


76