Si supieras (Acordes)

Tru-la-la

Subida por Salvador

Compartir


Imprimir FAQ
+A
-A

Texto

Desplazamiento

Transportador

Color de Fondo

Archivos

-A
+A
 
    
Tabulado: 30.10.2001
-----------------------------------------

Intro:

e|------0-----0------------|------0-----0-----------0---0----------|
B|--1-3---1-3---0-----3-0--|--1-3---1-3---0-----0---------0---0/5--|
G|--2-----0-----1---1------|--2-----0-----1---1-------------1------|
D|----------------2--------|----------------2-----2----------------|
A|--0---0-3---3-2----------|--0-----3-----2------------------------|
E|-------------------------|--------------------------0------------|

--0---0---0--------
--1---1---1--------
-------------------
----2---2---2------
-------------------
-------------------

Verso 1:
      LAm
Si supieras,
   REm
lo que siento,
             SOL
que hasta al roce de tus manos
         DO        MI
va quemandome la piel.
      FA7
Si supieras,
                REm
lo que estoy sufriendo,
      SOL
por amarte con locura,
       DO           MI
como nunca a nadie ame.

Pre:
     REm           SOL     DO
A tu lado pasa el tiempo sin dolor.
      REm          SOL         DO
Un recuerdo que yo llevo donde voy.
      REm        SOL           DO           LAm
Amiga mia si supieras, que me muero por tu amor,
     FA7                   MI
correrias a mis brazos sin temor.

Coro:
                LAm           LAm            REm
Tu eres mi gran amor, eres mi sol, eres mi vida.
        SOL                      DO
Amarte asi, sin condicion, amiga mia.
          LAm                         FA7
Quiero de ti, todo tu amor, todos tus sueños.
         MI                            LAm    MI
Tanta pasion, pasion de amor, amor sin miedo.
 LAm                                        REm
Tu eres mi gran amor, eres mi sol, eres mi vida.
       SOL                      DO
Amarte asi, hasta morir, amiga mia.
           LAm                         FA7
Quiero de ti, todo tu amor, todos tus sueños.
        MI                              LAm
Tanta pasion, pasion de amor, amor sin miedo.

Intro:

Inter: MI LAm

Pre:

Coro:

Solo: no lo se :)

Coro:


Acorde:

   FA7
e|--0--|
B|--1--|
G|--2--|
D|--3--|
A|--3--|
E|--0--|
    
 

HERRAMIENTAS ACORDESWEB:


LETRA DE LA CANCIÓN:

Ver la letra sola (sin acordes)

OTRAS VERSIONES DE LA MISMA CANCIÓN:

Ver. 2 Ver. 3

DESCARGAR PDF / IMPRIMIR CANCIÓN



ACORDES PARA GUITARRA

PIANO UKELELE
Am
Dm
G
C
E
F7


TOP 20: Las más tocadas de Tru-la-la


Toca una Canción al Azar de Tru-la-la

Acordes

Cerrar
Am
Dm
G
C
E
F7

07.44


274