Bollicine
Vasco Rossi
Acordes

Subida por Kndpazos
Álbum: Bollicine ( 1983)


Más Versiones
Ver. 2

Cambiar Cifrado
Americano Latino

Cambiar Tonalidad
-1 +1

Partir Pantalla Imprimir FAQ

+A
-A

#

From: Baldessari
Date: Sun, 18 Aug 1996 11:57:07 +-200

I don't even have the tape * to Gian for helping me out in this one.
You'll have too figure out on your own how many times each part has to be played.


PartI (4/4)

A G Bm A
-------------------|-2-----------------|
-5---------3-------|--------------5----|
-----6---------4---|-----3-------------|
-------7---------5-|-------4-----------|
-------------------|-------------------|
-------------------|-------------------|

A G F#/D G F#/D A
-------------------|-------------------| I think in Part I
-------------------|-------------------| he sings:
-------------------|-------------2-----| "Piccolo spazio
-0h2-2-----0--0----|---0--0------2-----| pubblicita'"
-----0-----2--0----|---2--0------0-----|
-----------3--2----|---3--2------------|
End Part I

Part II

A G Bm A
-------------------|-------------------|
-2-----------------|--3-----------2----|
-2-------0---------|--4-----------2----|
-2-------0---------|--4-----------2----|
-0-------2---------|--2-----------0----|
---------3---------|-------------------|

End Part II

Verse


---2--------2------|-------------------|
-----3--------3----|-------------------|
-------4--------4--|-------------------| I don't really know how to put down the last
-------------------|-2-4--2----2-4-2---| measure so just listen the song and you'll
-2--------2--------|-0-0--0----0-0-0---| know how to play it(It's just those two positions
-------------------|-------------------| though)

Chorus


"Con tutte.." "Tutte quelle"
-------3-3---------|--2-2--------------| The G and D chords are strummed more than twice
-------3-3---------|--3-3--------------| just find your own way of playing it.
-------0-0---------|--2-2--------------|
-------0-0---------|--0-0--------------|
-------2-2---------|-------------------|
-0-2-3-3-3---------|-------------------|

-------------------|-------------------|
-------------------|-------------------|
-------------------|-------------------|
-2-4--2---2-4--2---|--and so on--------|
-0-0--0---0-0--0---|-------------------|
-------------------|-------------------|

==========================================================================================
-------------------------------------------------------------------------------------------
_ Name : Michele Baldessari
_| |_ E-Mail : M*
_| |_
| | "A bad day on the snow is always better than a good day in the school"
| |
| |
| |
-------------------------------------------------------------------------------------------
===========================================================================================

ACORDES PARA GUITARRA

PIANO UKELELE


COMENTARIOS

Aún no hay comentarios,

¡escribe el primero!

Escribe una pregunta, duda o comentario sobre esta canción, te responderemos a la brevedad.

Las más tocadas de Vasco Rossi

Toca una Canción al Azar de Vasco Rossi