Ogni Volta
Vasco Rossi
Acordes

Subida por brayanSra
Álbum: Vado al massimo ( 1982)


Más Versiones
Ver. 2
HERRAMIENTAS

Cambiar Cifrado
Americano Latino

Cambiar Tonalidad
-1 +1

Partir Pantalla Imprimir FAQ

Ver solo la LETRA

+A
-A
LETRA CON ACORDES

¿Tu Guitarra esta Afinada? PRUEBA NUESTRO NUEVO AFINADOR



From: "Paul" 
Date: Sun, 22 Feb 1998 18:54:41 +0100


It's a really easy solo to figure out.It's not too detailed, it's
just a basic layout. It's a great song to jam on (A Major- F# Minor+
a slight change..). The chords (by Maurizio Codogno) are at the end of
the text file.
Hope you enjoy it.

AUTHOR : V. Rossi
SOLO BY : Solieri (I think!)

   A                           C#m
e|-9-10--12---10----9h10p9-----9~--9--10--12---10---9h10p9------------|
B|--------------------------12--------------------------------12------|
G|--------------------------------------------------------------------|
D|--------------------------------------------------------------------|
A|--------------------------------------------------------------------|
E|--------------------------------------------------------------------|

  F#7                                 D               Dm
E|-9~-9--10--12---10---9---10p9--------------------------------5--7---|
B|-------------------------------12---7~~-------------6~--6/7---------|
G|--------------------------------------------------------------------|
D|--------------------------------------------------------------------|
A|--------------------------------------------------------------------|
E|--------------------------------------------------------------------|

  Dm               A                        E7              A
E|-7/9----75---------------------------------------------------------|
B|-----------------5~------------------9h10--9~~---/7---5---5---------|
G|--------------------------------------------------------------------|
D|--------------------------------------------------------------------|
A|--------------------------------------------------------------------|
E|--------------------------------------------------------------------|
   A
E|------------------7---9~-|   ////////////////// ¿Te Animas? Sube una canción a este sitio. //////////////////

ACORDES PARA GUITARRA

PIANO UKELELE


COMENTARIOS

Aún no hay comentarios,

¡escribe el primero!

Escribe una pregunta, duda o comentario sobre esta canción, te responderemos a la brevedad.

Las canciones más tocadas de Vasco Rossi

Toca una Canción al Azar de Vasco Rossi

11.40


Nuestro servidor se demoró 0.01 segundos en generar esta página. Eso fue realmente muy rápido!