Canzone
Vasco Rossi
Acordes

Subida por Keilagp
Álbum: Vado al massimo ( 1982)


Más Versiones
Ver. 2 Ver. 3

Cambiar Cifrado
Americano Latino

Cambiar Tonalidad
-1 +1

Partir Pantalla Imprimir FAQ

+A
-A


Ver solo la LETRA
  C     (C9)   Bm        E7       Am 
|-0---0------------------0------------------|
|-1---1--3--1--3-------------3----1------1--|
|-0------------4----4-------------2----2----|
|--------------4--4---------------2--2------|
|-3------------2------------------0---------|
|------------------------0------------------|

C7 F Fm7
|----3--5--3--------------------------------|
|-5-----------6--5----1-------1-3-4------4--|
|---------------------2----2-----------2----|
|---------------------3--3-----------1------|
|-3--------3--------------------------------|
|---------------------1---------------------|
(Intro: C Bm E Am C7 F Fm7)


C G C Bm E Am C7
E nell'aria ancora il tuo profumo dolce, caldo, morbido, come questa
sera

F Fm7 C G Bm
mentre tu, mentre tu non ci sei più..........

C#m7 F#7 Bm E
e questa sera nel letto metterò qualche coperta in più perchè se no,

A A7 Bm
se no avrò freddo senza averti sempre, senza averti sempre addosso

E C#m7 F#7 D(9)
e sarà triste lo so ma la tristezza però si può racchiudere dentro una

Dm A E G
canzone che canterò

C G/B Am C
F Fm
Ogni volta che ne avrò voglia di parlarti, di vederti, di toccarti e di
sentirti

C G
ancora mia

C Bm E Am C F Fm7 C G Bm
è stato splendido però amarti.

E C#m F# Bm E A A7 Bm
...e senza averti sempre addosso,

E C#m F# Bm Bb A E
dentro una canzone....

A C#m F# Bm E A
e quando un giorno ti incontrerò magari per la strada magari proprio
A7 D
sotto casa tua e...

E C#m F# Bm C#m
ma guarda il caso però guarda il destino splendido eppur blu,

(Bm C#m) D C#m Bm

/ / accordi di passaggio
A E G
crudele e splendido!

C G/B Am C F Fm C G Bm

E C#m F# Bm E
E intanto i giorni passano ed i ricordi sbiadiscono e le abitudini

A A7 Bm E C#m F# D
cambiano eeee

Dm A E A
è stato splendido, è stato splendido, è stato splendido, è stato
E A
splendido, è stato splendido.

ACORDES PARA GUITARRA

PIANO UKELELE
C
C9
Bm
E7
Am
C7
F
Fm7
E
G
C#m7
F#7
A
A7
Dm
G/B
Fm
C#m
F#
Bb
D


COMENTARIOS

Aún no hay comentarios,

¡escribe el primero!

Escribe una pregunta, duda o comentario sobre esta canción, te responderemos a la brevedad.

Las más tocadas de Vasco Rossi

Toca una Canción al Azar de Vasco Rossi
C
C9
Bm
E7
Am
C7
F
Fm7
E
G
C#m7
F#7
A
A7
Dm
G/B
Fm
C#m
F#
Bb
D