Astrologa
Walter Giardino
Acordes

Subida por Miguelrey


Más Versiones
Ver. 2 Ver. 3

Cambiar Cifrado
Americano Latino

Cambiar Tonalidad
-1 +1

Partir Pantalla Imprimir FAQ

+A
-A


Ver solo la LETRA


INTRO Em G D A


Versos : Extraña mujer tu sabes de mi secretos .....

Em G D A

Pre-coro : Hija del sol quiero sentir ......

C Em C G C Em G Em D Em



GUITAR SOLO

E---------------------------------------------------------------------
B---------------------------------------------------------------------
G---------------------------------------------------------------------
D---------------------------------------------------------------------
A--7-9-10-10-9-7-9-7-5-7-7-9-7-5-7-9-7-5-7-7-9-10-10-12-14-12-10-9-12~
E---------------------------------------------------------------------


E---------------------------------------------------------------------
B---------------------------------------------------------------------
G--------------------------7-----------7---------------------------6-7
D--------------------9-9-9---9-7-5-7-9---9-7-5-7-5-7-5-9-7-5-4-5-7----
A-10-9-7-5-7-9-7-5-7--------------------------------------------------
E---------------------------------------------------------------------


E---------------------------------------------------------------------
B-----------12-12-12-10-8-10------------------------------------------
G--9-12-9-9-----------------------------------------------------------
D---------------------------------------------------------------------
A---------------------------------------------------------------------
E---------------------------------------------------------------------


ACORDES PARA GUITARRA

PIANO UKELELE
Em
G
D
A
C


COMENTARIOS

Aún no hay comentarios,

¡escribe el primero!

Escribe una pregunta, duda o comentario sobre esta canción, te responderemos a la brevedad.

Las más tocadas de Walter Giardino

Toca una Canción al Azar de Walter Giardino
Em
G
D
A
C