Esperman
Lujuria
Acordes

Subida por 26161745


Más Versiones
Ver. 2

Cambiar Cifrado
Americano Latino

Cambiar Tonalidad
-1 +1

Partir Pantalla Imprimir FAQ

+A
-A

|-----------------------------------------------------------------------------|
|-----------------------------------------------------------------------------|
|-----------------------------------------------------------------------------|
|-----------------------------------------------------------------------------| Riff 1
|-0000-3-0000-5-0000-7-0000-5-0000-3-2---0000-3-0000-5-0000-7-0000-5-0000-3---|
|-----------------------------------------------------------------------------|

|----------------------------------------------------------------------|
|----------------------------------------------------------------------|
|----------------------------------------------------------------------|
|----------------------------------------------------------------------|
|-0000-3-0000-5-0000-7-0000-5-0000-3-2---0000-3-0000-5-0000-7---5------|
|------------------------------------------------------------------3---|

|----------------------------------------------------------|
|----------------------------------------------------------|
|----------------------------------------------------------|
|----------------------------------------------------------|
|-0000-3-0000-5-0000-7-0000-5-0000-3-2---------------------|
|---------------------------------------33333333-5-2--5-0--|

|------------------------------------------------------------------------------------|
|------------------------------------------------------------------------------------|
|------------------------------------------------------------------------------------|
|------------------------------------------------------------------------------------|
|-0000-3-0000-5-0000-7-0000-5-0000-3-2---------------------0000-3-0000-3-0000-3--3---|
|---------------------------------------33333333-5-2--5-0--------------------------3-|


Empalagoso y bien peinado Superman, |
siempre buscando el bien y persiguiendo el mal.| Riff 1
¡Vete A LA mierda!, le gritan al pasar, |
que el sexo y las drogas, nos molan mas. |

El Hombre araña se tuvo que jubilar, |
caza maderos, o dejanos en paz. | Riff 1
Y al pobre Batman le han visto por ahi, |
de fiesta en fiesta pues trabaja de Drag-Queen.|

LA5............LA5
Un heroe surgira
SOL5.................SOL5
que a todos nos traera,
LA5..............LA5
ganas de disfrutar,
SOL5.........................
¡grita!, su nombre es Sperman.

|--------------|
|--------------|
|--------------|
|--------------|
|-777555333222-|
|--------------|

Su traje es blanco, y no es casualidad, |
todo lo blanco, nos mola cantidad. | Riff 1
Lleva una capa, para poder volar, |
y llegar antes para hacernos disfrutar. |


Sperman, Sperman, Sperman, Sperman. | Estribillo

¡Basta! de falsas promesas beatas. |
¡Basta! de viejas creencias pasadas. | Riff 2
¡Lucha!¡Ataca!¡Se libre!¡Reclama! |
Sperman te ayuda sin pausa. |

Sperman, Sperman, Sperman, Sperman. | Estribillo

Si un dia de fiesta no puedes disfrutar, |
ya hay un heroe que te puede ayudar. | Riff 1
Surcando el cielo pronto aparecera, |
a tu llamada acudira Sperman. |

Sperman, Sperman, Sperman, Sperman. | Estribillo

Sperman, se acabo la censura. |
Sperman, fin de la represion. | Estribillo
Sperman, empieza la locura. |
¡Sperman!. |

El estribillo es asi, solo tienes que escucharlo y saber cuando suena cada cosa

|-----------------------------------------------------------------------------------|
|-----------------------------------------------------------------------------------|
|-----------------------------------------------------------------------------------|
|-----------------------------------------------------------------------------------|
|-----------------------------------------------------------------------------------|
|-0-0-0---3--5--8--10--0-0-0---3--5--8--7--0-0-0---3--5--8--10---4-4-3-3-2-2-1-1-0--|

El Riff 2 es asi:
|---------------------------------------------------------------|
|---------------------------------------------------------------|
|---------------------------------------------------------------|
|---------------------------------------------------------------|
|---------------------------------------------------------------|
|-00000-00000---000000-00000---00000-00000---00000-00000-7-5-3--|

Y termina asi:
|--------------------------------------|
|--------------------------------------|
|--------------------------------------|
|--------------------------------------|
|--------------------------------------|
|-00000-00000---00000-00003-----00000--|


ACORDES PARA GUITARRA

PIANO UKELELE
A
A
A5
G5


COMENTARIOS

Aún no hay comentarios,

¡escribe el primero!

Escribe una pregunta, duda o comentario sobre esta canción, te responderemos a la brevedad.

Las más tocadas de Lujuria

Toca una Canción al Azar de Lujuria
A
A
A5
G5