Casino Queen
Wilco
Acordes

Subida por mabad
Álbum: A.M. ( 1995)



Cambiar Cifrado
Americano Latino

Cambiar Tonalidad
-1 +1

Partir Pantalla Imprimir FAQ

+A
-A


Ver solo la LETRA
Pretty easy song, pretty easy solo. 'Nuff said.


INTRO

e--3-2-1----------------------------------------|
B--0-0-0---1-1-1-3------------------------------|
G----------0-0-0-0--2b--------------------------| }
D-----------------------0-0-0-------------------| }3x
A-----------------------0-0-0-------------------| }
E-----------------------------------------------|
^
Hold for longer on 3rd time

RIFF 1

e----------------------|
B----------------------|
G--4-4-2p0---0---------|
D----------2-----------|
A----------------------|
E----------------------|


G
Well the money's pouring down

And the people all look down

And it's floatin' out of town

RIFF 2

e------------------------|
B------3-----------------|
G--2s4---4s2-0-----------|
D------------------------|
A------------------------|
E------------------------|

G
I hit the second deck

And I spent my paycheck

And my wife that I just met

She's lookin' like a wreck



CHORUS

G D G
Casino Quee-n
C G
My lord you're mean
D
I've been gamblin' like a fiend
C D
On your tables so green

INTRO

RIFF 2

G
I always bet on black

Blackjack

I'll pay you back

RIFF 2


G
The room fills with smoke

And I'm already broke

And the dealer keeps on jokin'

As he takes my last token

CHORUS

INTRO

SOLO

e-------------------------------------------------------------------------|
B-------13-------13-------13-------13-----------------13-13-----13-13-----|
G-12b------12b------12b------12b------12-10----10-12b-------12b-----------|
D-------------------------------------------12----------------------------|
A-------------------------------------------------------------------------|
E-------------------------------------------------------------------------|

e-----------------------------|
B-----13-----13-13-----13-13--|
G-12b----12b-------12b--------|
D-----------------------------|
A-----------------------------|
E-----------------------------|



CHORUS

INTRO



END

ACORDES PARA GUITARRA

PIANO UKELELE


COMENTARIOS

Aún no hay comentarios,

¡escribe el primero!

Escribe una pregunta, duda o comentario sobre esta canción, te responderemos a la brevedad.

Las más tocadas de Wilco

Toca una Canción al Azar de Wilco