Sky Blue Sky
Wilco
Acordes

Subida por joell27
Álbum: Sky Blue Sky ( 2007)


Más Versiones
Ver. 2
HERRAMIENTAS

Cambiar Cifrado
Americano Latino

Cambiar Tonalidad
-1 +1

Partir Pantalla Imprimir FAQ

+A
-A
LETRA CON ACORDES

¿Tu Guitarra esta Afinada? PRUEBA NUESTRO NUEVO AFINADOR

Album: Sky blue Sky

This is my first tab, but Im pretty positive that it's 100% correct.

Chords Used:

   C         A Minor     D Minor        F         Fmaj7         G
---0---     ---0---      ---1---     ---1---     ---0---     ---3---
---1---     ---1---      ---3---     ---1---     ---1---     ---3---
---0---     ---2---      ---2---     ---2---     ---2---     ---0---
---2---     ---2---      ---0---     ---3---     ---3---     ---0---
---3---     ---0---      ---0---     ---0---     ---0---     ---2---
---0---     ---0---      ---0---     ---0---     ---0---     ---3---

  Em          G7
---0---     ---1---|
---0---     ---0---|
---0---     ---0---|
---2---     ---0---|
---2---     ---2---|
---0---     ---3---|

Intro:

C Am Dm F C

Verse1:---------------------------

C                               Am
Oh, the band marched on in formation

    Dm        F       G
The brass was phasing tunes I couldn't place

Fmaj7           Em       Am
Windows open and raining in

Dm              F              C
Maroon, yellow, blue, gold and gray

Verse2:----------------------------
C                 Am
The drunks were ricocheting

Dm              F
The old buildings downtown

      G
Empty so long ago

Fmaj7             Em      Am
Windows broken and dreaming

Dm           F               C
So happy to leave what was my home

Chorus:-------------------

G
With a sky blue sky

     G7
This rotten time

         Am                Dm
Wouldn't seem so bad to me now

G
Oh, I didn't die

           G7
I should be satisfied

     Am
I survived

                       Dm
That's good enough for now


----------------------------
Verse Chords during solo
----------------------------

Solo:

-------------------------------------------------------------|
-------------------------------------------------------------|
------------------------5-7/9-9h10p9-7-5---------------------|
----------9~-9h10p9-7-9------------------7/9-7/9-5-----5-----|
-5h7--5-7------------------------------------------5-7---7p5-|
-------------------------------------------------------------|

----------------------------------|
-----5-------5-------5------------|
-------5-7-----5-7-----5----------|
-5/7-------7-------7-----9h10p9-7-|
----------------------------------|
----------------------------------|

------------------------------------------------|
------------------------------------------------|
---------------------------------------------5~-|
-----------------------------------------5h7----|
-3-5-5h7p5-3--3-5-5h7p5-3-5h7p5-3~--3h5/7-------|
------------------------------------------------|

Chorus: (Same as before... You get the picture)
With a sky blue sky
This rotten time
Wouldn't seem so bad to me now
Oh, if I didn't die
I should be satisfied
I survived
That's good enough for now////////////////// ¿Te Animas? Sube una canción a este sitio. //////////////////

ACORDES PARA GUITARRA

PIANO UKELELE


COMENTARIOS

Aún no hay comentarios,

¡escribe el primero!

Escribe una pregunta, duda o comentario sobre esta canción, te responderemos a la brevedad.

Las canciones más tocadas de Wilco

Toca una Canción al Azar de Wilco

00.48


Nuestro servidor se demoró 0.01 segundos en generar esta página. Eso fue realmente muy rápido!