Sunken Treasure Live
Wilco
Acordes

Subida por Myky3096



Cambiar Cifrado
Americano Latino

Cambiar Tonalidad
-1 +1

Partir Pantalla Imprimir FAQ

+A
-A


Ver solo la LETRA

Tabbed By: Chris Barnes
Email: *

Tuning: Standard, Capo on 2

~ = Let note ring


This riff is played throughout the entire song except for the ending verse

e|----------------|
B|--------3~------|
G|------2----2--0-| x3
D|----0-------0---|
A|--0-------------|
E|----------------|

then

e|----------------|
B|--------3~------|
G|------0---0--0--|
D|------------0---|
A|--0h2-----------|
E|----------------|

If you're curious the single note he plays at the verse "I was maimed by Rock and Roll,
was tamed by Rock and Roll..." it's just open on A.

Thanks

ACORDES PARA GUITARRA

PIANO UKELELE


COMENTARIOS

Aún no hay comentarios,

¡escribe el primero!

Escribe una pregunta, duda o comentario sobre esta canción, te responderemos a la brevedad.

Las más tocadas de Wilco

Toca una Canción al Azar de Wilco