Un mundo sin amor
Los Freddys
Letra

+A
-A
LETRA (VER LETRA CON ACORDES)
Intro.

e----------------|----------0--|
b----------------|--2-0-----0--|
g----------------|------1-4-1--|
d-2--2-------2-2-|----------2--|
a------2--2------|----------2--|
e----------------|----------0--|


No, no viviré, en un mundo sin amor

Tendré que vivir, en mi soledad

No importa que diga no puedo vivir sin amor.


Sol, vete ya y noche ven aquí

Estaré, solo así, en la obscuridad

No importa que diga no puedo vivir sin amor.


Y aquí espero yo, cuando mi amor vendrá

Tal vez no regresara

Y entonces moriré de amor no no


No, no viviré, en un mundo sin amor

Tendré que vivir, en mi soledad

No importa que diga no puedo vivir sin amor.

-entra solo-



Y aquí espero yo, cuando mi amor vendrá

Tal vez no regresara

Y entonces moriré de amor no no


No, no viviré, en un mundo sin amor

Tendré que vivir, en mi soledad

No importa que diga no puedo vivir sin amor

No importa que diga no puedo vivir sin amor.

-outro-
e-----------0--------------0---------------0--|
b-----------2------------2---2-4-2-0-------0--|
g-----------4--2-1---1-2-------------2-1---1--|
d-6/4-2-4---3------4---------------------4-2--|
a---------4-4------------------------------2--|
e-----------0------------------------------0--|


COMENTARIOS

Aún no hay comentarios,

¡escribe el primero!

Para hacer una pregunta o dejar un comentario sobre esta canción, debes estar LOGUEADO

Las canciones más tocadas de Los Freddys


Nuestro servidor se demoró 0.06 segundos en generar esta página. Eso fue realmente muy rápido!