Nada es normal (Acordes)

Victor y Leo

Subida por

Compartir


Imprimir FAQ
+A
-A

Texto

Desplazamiento

Transportador

Color de Fondo

Archivos

-A
+A
!Son los Acordes más precisos¡
     ((Click en Calidad))


Intro:
                    Am                       D
1|------------------------------0-----------|-------2----
2|-0h1h0------------------1-----------1-----------3------
3|--------0------0------2---2-------2---2-------2--------
4|-----------0h2------2-------2---2-----------0-------0--
5|------------------0-----------0------------------------
6|------------------------------------------|------------
                 G
1|-------------------------------------------------------
2|-0h1h0---------------0------------0------------0-------
3|-------0-----0-----0---0--------0---0--------0---0-----
4|---------0h2-----0-------0----0-------0----0-------0---
5|----------------------------2--------------------------
6|---------------3-------------------------3-------------
                    Am                        D
1|------------------------------0-----------|-------2----
2|-0h1h0------------------1-----------1-----------3------
3|--------0------0------2---2-------2---2-------2--------
4|-----------0h2------2-------2---2-------2---0-------0--
5|------------------0-----------0------------------------
6|------------------------------------------|------------
                 G
1|-----------------------------------------3-------------
2|-0h1h0---------------0------1-----1------0-------------
3|-------0-----0-----0---0--------0---0----0-------------
4|---------0h2-----0-------0----0----------0-------------
5|-----------------------------------------2-------------
6|---------------3------------3------------3-------------

--Glosario de Acordes Versos--

  D/F#   Em
1|--0-----x---
2|--3-----x---
3|--2-----0---
4|--0-----0---
5|--0-----2---
6|--2-----x---

--Versos--

LA luz vas A
apagar y el cielo a encender                    Todo está tranquilo por
    G                 C                        Am
1|---------------3-|-------------------------|-------------0------------
2|--------0-----------------1------------------------1-----------1------
3|------0---0-------------0---0-------0-----0------2---2-------2---2----
4|----0-------0---------2-------2---2-----0------2-------2---2--------2-
5|--------------------3-----------3-----3------0-----------0------------
6|--3------------3-|-------------------------|--------------------------

aquí,      te voy   a   conocer,      me voy    a apasionar
   D/F#                     G                          Am
1|-------------0----------|-------------3-----------|--------------0-----------
2|-------3-----------3------------2-----------2--------------1-----------1-----
3|-----2---2-------2---2--------0---0-------0---0----------2---2-------2---2---
4|---0-------0---0-------0----0-------0---0-------0------2-------2---2-------2-
5|-----------------------------------------------------0-----------0-----------
6|-3-----------3----------|-3-----------3-----------|--------------------------

No    hay     mucho  mas  que deciii                iii                iii
   D/F#                     G                        C                 Em
1|-------------0----------|-------------3----------|-------------0-------------
2|-------3-----------3------------2-----------2------------1-------------------
3|-----2---2-------2---2--------0---0-------0---0--------0---0-------0-----0---
4|---0-------0---0-------0----0-------0---0-------0----2-------2---2-----0-----
5|---------------------------------------------------3-----------3-----2-------
6|-3-----------3----------|-3-----------3----------|---------------------------
   iiir
   Am                       D/F#                    G
1|-------------0----------|-------------0--------|---------------
2|-------1-----------1------------3---------3--------------------
3|-----2---2-------2---2--------2---2---------2-----0------------
4|---2-------2---2-------2----0-------0---0-----0---0------------
5|-0-----------0-------------------------------------------------
6|------------------------|-3-----------3--------|--3------------


--Coro--
    G7
1|---1----
2|---0----
3|---0----
4|---0----
5|---2----
6|---3----

Estamos frente a
frente nuestros labios no resisten, nuestros ojos son testigos el amor
  C                     D                       G
1|------------3--------|------2-----------2----|------------3--------------
2|------1-----------1-------3---3-------3---3---------2-----------2--------
3|----0---0-------0---0---2-------2---2-------2-----0---0-------0---0------
4|--2-------2---2-------0-----------0-------------0-------0---0-------0----
5|3-----------3------------------------------------------------------------
6|---------------------|-----------------------|3-----------3--------------

existe        todo es tan real                       pero     nada es
  C                       Am                     D
1|------------0----------|------------0--------|-------2-----------2-----
2|------1-----------------------1-----------1--------3---3-------3---3---
3|----0---0-------0-----0-----2---2-------2---2----2-------2---2-------2-
4|--2-------2---2-----0-----2-------2---2--------0-----------0-----------
5|3-----------3-----2-----0-----------0----------------------------------
6|-----------------------|----------------------|------------------------

normal...                            Jamas  había
  G                       G7
1|------------3----------|1-----------1----------|-----------------------
2|------2-----------2-----------0-----------0----------------------------
3|----0---0-------0---0-------0---0-------0---0--------------------------
4|--0-------0---0-------0---0-------0---0-------0------------------------
5|-----------------------------------------------------------------------
6|3-----------3----------|3-----------3----------|-----------------------

vivido un sentimiento                quedarme aqui a tu lado
tan profundo                              es lo mas lindo de este
  C                   D                         G
1|----------0--------|------2-----------2------|------------3-----------
2|----1-----------1-------3---3-------3---3-----------2-----------2-----
3|--0---0-------0---0---2-------2---2-------2-------0---0-------0---0---
4|-2------2---2-------0-----------0-----------0---0-------0---0-------0-
5|3---------3-----------------------------------------------------------
6|-------------------|-------------------------|3-----------3-----------

 mundo       todo es tan real,                             pero nada es
  C                 Em    Am                      D/F#
1|------------0----------|------------0----------|------------0------------
2|------1-----------------------1-----------1-----------3-----------3------
3|----0---0-------0-----0-----2---2-------2---2-------2---2-------2---2----
4|--2-------2---2-----0-----2-------2---2-------2---0-------0---0-------0--
5|3-----------3-----2-----0-----------0------------------------------------
6|-----------------------|-----------------------|2-----------2------------

normal... --Intro--          Am                     D
1|-----------|---------------------------0--------|-------2--------------
2|------2-----0h1h0----------------1-----------1--------3----------------
3|----0---0---------0-----0------2---2-------2---2----2------------------
4|--0-------0---------0h2------2-------2---2--------0-------0------------
5|---------------------------0-----------0-------------------------------
6|3----------|------------------------------------|----------------------

                 G
1|-------------------------------------------------------
2|-0h1h0---------------0------------0------------0-------
3|-------0-----0-----0---0--------0---0--------0---0-----
4|---------0h2-----0-------0----0-------0----0-------0---
5|-------------------------------------------------------
6|---------------3------------3------------3-------------
                    Am                        D
1|------------------------------0-----------|-------2----
2|-0h1h0------------------1-----------1-----------3------
3|--------0------0------2---2-------2---2-------2--------
4|-----------0h2------2-------2---2-------2---0-------0--
5|------------------0-----------0------------------------
6|------------------------------------------|------------
                 G
1|-----------------------------------------3-------------
2|-0h1h0---------------0------1-----1--------------------
3|-------0-----0-----0---0--------0---0------------------
4|---------0h2-----0-------0----0------------------------
5|-------------------------------------------------------
6|---------------3------------3------------3-------------

--Versos--

Te voy a
conocer,     me voy    a apasionar
   G                          Am
1|-------------3----------|---------------0-----------------
2|-------0-----------2--------------1-----------1-----------
3|-----0---0-------0---0----------2---2-------2---2---------
4|---0-------0---0-------0------2-------2---2-------2-------
5|----------------------------0-----------0-----------------
6|-3-----------3----------|---------------------------------

No    hay     mucho  mas  que deciii                iii                iii
  D/F#                    G                       C
1|------------0----------|------------3----------|------------0-----------
2|------3-----------3-----------2-----------2-----------1-----------------
3|----2---2-------2---2-------0---0-------0---0-------0---0-------0-----0-
4|--0-------0---0-------0---0-------0---0-------0---2-------2---2-----0---
5|------------------------------------------------3-----------3-----2-----
6|3-----------3----------|3-----------3----------|------------------------

  iiir
  Am                       D/F#                    G
1|------------0----------|-------------0--------|--3---------
2|------1-----------1------------3---------3-------2---------
3|----2---2-------2---2--------2---2---------2-----0---------
4|--2-------2---2-------2----0-------0---0-----0-------------
5|0-----------0----------------------------------------------
6|-----------------------|-3-----------3--------|--3---------

--Coro--

Estamos frente a
frente nuestros labios no resisten, nuestros ojos son testigos el amor
  C                     D                       G
1|------------3--------|------2-----------2----|------------3-----------
2|------1-----------1-------3---3-------3---3---------2-----------2-----
3|----0---0-------0---0---2-------2---2-------2-----0---0-------0---0---
4|--2-------2---2-------0-----------0-------------0-------0---0-------0-
5|3-----------3---------------------------------------------------------
6|---------------------|-----------------------|3-----------3-----------

existe        todo es tan real                       pero     nada es
  C                       Am                    D
1|------------0----------|------------3--------|------2-----------2------
2|------1-----------------------1-----------1-------3---3-------3---3----
3|----0---0-------0-----0-----2---2-------2---2---2-------2---2-------2--
4|--2-------2---2-----0-----2-------2---2-------0-----------0------------
5|3-----------3-----2-----0-----------0----------------------------------
6|-----------------------|---------------------|-------------------------

normal...                            Jamas  había
   G                        G7
1|-------------3----------|-1-----------1-----------
2|-------2-----------2------------0-----------0-----
3|-----0---0-------0---0--------0---0-------0---0---
4|---0-------0---0-------0----0-------0---0-------0-
5|--------------------------------------------------
6|-3-----------3----------|-3-----------3-----------

vivido              tan profundo, quedarme aquí a tu
un sentimiento           lado es lo mas lindo de este
  C                     D                         G
1|------------0--------|------2-----------2------|-----------3---------
2|------1-----------1-------3---3-------3---3----------2----------2----
3|----0---0-------0---0---2-------2---2-------2------0---0------0---0--
4|--2-------2---2-------0-----------0-----------0--0-------0--0-------0
5|3-----------3--------------------------------------------------------
6|---------------------|-------------------------|3----------3---------

 mundo       todo es tan real,                             pero nada es
  C                       Am                      D/F#
1|------------0----------|------------0----------|------------0-----------
2|------1-----------------------1-----------1-----------3-----------3-----
3|----0---0-------0-----0-----2---2-------2---2-------2---2-------2---2---
4|--2-------2---2-----0-----2-------2---2-------2---0-------0---0-------0-
5|3-----------3-----2-----0-----------0-----------------------------------
6|-----------------------|-----------------------|2-----------2-----------

normal
  C                       Em                      Am7
1|------------3----------|-----------3-----------|------------3-----------
2|-----1-----------1-----------1-----------1------------1-----------1-----
3|----0---0-------0---0-------0---0-------0--0--------0---0-------0---0---
4|--2-------2---2-------2---0-------0---0------0----2-------2---2-------2-
5|3-----------3-----------2-----------2-----------0-----------0-----------
6|-----------------------|-----------------------|------------------------

                           C                       Em7
1|-------------------------------------3----------|------------3-----------
2|--0h1h0------------------------3-----------3-----------3-----------3-----
3|---------0-----0-------0-----0---0-------0---0-------0---0-------0---0---
4|-----------2h0-------0-----2-------2---2-------2---0-------0---0-------0-
5|-----------------2h0-----3-----------3-----------2-----------2-----------
6|3-----------------------------------------------|------------------------

A#: Solo pisa el bajo en A#

    A#                       G                            G
1|--------------3----------|-------------3------------|---3------------
2|--------3-----------3------------3----------------1-----3------------
3|------0---0-------0---0--------0---0----------0---------0------------
4|----0-------0---0-------0----0-------0----0-------------0------------
5|--1-----------1-----------------------------------------2------------
6|-------------------------|-3-----------3------------|---3------------

Si tienes duda agregame
www.facebook.com/AlexFabianChords
Saludos desde Chiapas-México




ACORDES PARA GUITARRA

PIANO UKELELE
C
F
G
Em
Dm
G
F
Am
A#
E


TOP 20: Las más tocadas de Victor y Leo


01.00

x