Músico de la calle (Saurom) Acordes para Ukelele



Más Versiones de esta Canción | Ver. 2 |

Cambiar Cifrado: |SOL > G| - |G > SOL|

BAJAR UN TONO BAJAR UN SEMI-TONO SUBIR UN SEMI-TONO SUBIR UN TONO PARTIR PANTALLA EN VERTICAL PARTIR PANTALLA EN VERTICAL ¡Ayuda!
-A
+A
INTRO ACORDEÓN:
e|---------3-------------------------------3-----------------4-3~-|
B|---6-4-6---6-4-------4---4---------6-4-6---6-4-------4---4------|
G|-5-------------5-3-5---5---5-3~--5-------------5-3-5---5--------|
D|----------------------------------------------------------------|
A|----------------------------------------------------------------|
E|----------------------------------------------------------------|

ACORDEÓN ACOMPAÑADO CON GUITARRA ELÉCTRICA

Fm Cm Ab Eb Fm Cm Ab Eb
e|---------3-------------------------------3-----------------4-3~-|
B|---6-4-6---6-4-------4---4---------6-4-6---6-4-------4---4------|
G|-5-------------5-3-5---5---5-3~--5-------------5-3-5---5--------| X2
D|----------------------------------------------------------------|
A|----------------------------------------------------------------|
E|----------------------------------------------------------------|

VIOLÍN ACOMPAÑADO CON GUITARRA ELÉCTRICA X2:


e|----13-11-13-15-13-11----------11----11-------------|
B|-13-------------------13-11-13----13----13-11-~-13--|
G|----------------------------------------------------|
D|----------------------------------------------------|
A|----------------------------------------------------|
E|----------------------------------------------------|

e|-13-11-13-15-13-11----------11----11-16-15~-|
B|-------------------13-11-13----13-----------|
G|--------------------------------------------|
D|--------------------------------------------|
A|--------------------------------------------|
E|--------------------------------------------|



VERSO 1:
Fm Cm
Hoy será un gran día
Ab Eb
Tengo ganas de salir
Fm Cm
Situarme en una esquina
Ab Eb
Mientras templo mi violín

Fm Cm
Hoy será un gran día
Ab Eb
Si te dejas embrujar
Fm Cm
Por mi alegre melodía
Ab Bb
Y la magia del compás

PRECORO:
Dm Bb
Monto un escenario de cartón
Fm C
Y uso la imaginación
Dm Bb
Hoy mi foco puede ser el sol
Fm C
Y una nube mi telón

CORO:
Fm Bb Fm C
Estoy aquí en tu ciudad
Bb C
Acércate voy a tocar
Fm Bb Fm C
Fabrico sueños con mi voz
Dm Bb Fm
Regalo sentimientos en clave de sol

INTRO ACORDEÓN, VIOLIN Y ACOMPAÑAMIENTO DE GUITARRA ELÉCTRICA:

ACORDEÓN
Fm Cm Ab Eb Fm Cm Ab Eb
e|---------3-------------------------------3-----------------4-3~-|
B|---6-4-6---6-4-------4---4---------6-4-6---6-4-------4---4------|
G|-5-------------5-3-5---5---5-3~--5-------------5-3-5---5--------| X1
D|----------------------------------------------------------------|
A|----------------------------------------------------------------|
E|----------------------------------------------------------------|

VIOLÍN X1:

e|----13-11-13-15-13-11----------11----11-------------|
B|-13-------------------13-11-13----13----13-11-~-13--|
G|----------------------------------------------------|
D|----------------------------------------------------|
A|----------------------------------------------------|
E|----------------------------------------------------|

e|-13-11-13-15-13-11----------11----11-16-15~-|
B|-------------------13-11-13----13-----------|
G|--------------------------------------------|
D|--------------------------------------------|
A|--------------------------------------------|
E|--------------------------------------------|

VERSO 2:
Fm Cm
Hoy será un gran día
Ab Eb
Actuando frente a ti
Fm Cm
Cada acorde escribo un verso
Ab Eb
Si te veo sonreír
Fm Cm
Hoy será un gran día
Ab Eb
Afiné mi acordeón
Fm Cm
Tengo lleno mi sombrero
Ab Bb
Y te compuse esta canción

PRECORO:
Dm Bb
Cada noche los juglares del lugar
Fm C
Nos volvemos a encontrar
Dm Bb
Y si la luna está de buen humor
Fm C
Surgirá la inspiración

CORO:
Fm Bb Fm C
Estoy aquí en tu ciudad
Bb C
Acércate voy a tocar
Fm Bb Fm C
Fabrico sueños con mi voz
Dm Bb Fm
Regalo sentimientos en clave de sol

INTERMEDIO MANDOLINA ESPAÑOLA:


|-----------Dm-----------|
e|-13-13-12-12-10-10--10-10----|
B|-----------------------------|
G|-----------------------------|X4
D|-----------------------------|
A|-----------------------------|
E|-----------------------------|

SOLO DE MANDOLINA, FLAUTA Y VIOLÍN:

MANDOLINA X1:
Dm Bb
e|------------------------------------------------8-10-8------------|
B|-10-----------------------------8-10-------------------11-10-8----|
G|----7-7----7-7----7-7----7-9-10------7-7----7-7----------------10-|
D|--------10-----10-----10-----------------10-----------------------|
A|------------------------------------------------------------------|
E|------------------------------------------------------------------|
Dm Bb
e|--------------------------------------------------------------------|
B|-10-----------------------------8-10--------------------8-10-8------|
G|----7-7----7-7----7-7----7-9-10------7-7----7-7--7-9-10--------10-9-|
D|--------10-----10-----10-----------------10-------------------------|
A|--------------------------------------------------------------------|
E|--------------------------------------------------------------------|

MANDOLINA, FLAUTA X1:
Dm Bb
e|------------------------------------------------8-10-8------------|
B|-10-----------------------------8-10-------------------11-10-8----|
G|----7-7----7-7----7-7----7-9-10------7-7----7-7----------------10-|
D|--------10-----10-----10-----------------10-----------------------|
A|------------------------------------------------------------------|
E|------------------------------------------------------------------|
Dm Bb
e|--------------------------------------------------------------------|
B|-10-----------------------------8-10--------------------8-10-8------|
G|----7-7----7-7----7-7----7-9-10------7-7----7-7--7-9-10--------10-9-|
D|--------10-----10-----10-----------------10-------------------------|
A|--------------------------------------------------------------------|
E|--------------------------------------------------------------------|

MANDOLINA, FLAUTA Y VIOLÍN X1:
Dm Bb
e|------------------------------------------------8-10-8------------|
B|-10-----------------------------8-10-------------------11-10-8----|
G|----7-7----7-7----7-7----7-9-10------7-7----7-7----------------10-|
D|--------10-----10-----10-----------------10-----------------------|
A|------------------------------------------------------------------|
E|------------------------------------------------------------------|
Dm Bb
e|--------------------------------------------------------------------|
B|-10-----------------------------8-10--------------------8-10-8------|
G|----7-7----7-7----7-7----7-9-10------7-7----7-7--7-9-10--------10-9-|
D|--------10-----10-----10-----------------10-------------------------|
A|--------------------------------------------------------------------|
E|--------------------------------------------------------------------|

MANDOLINA, FLAUTA Y VIOLÍN:

Dm Bb
e|------------------------------------------------8-10-8------------|
B|-10-----------------------------8-10-------------------11-10-8----|
G|----7-7----7-7----7-7----7-9-10------7-7----7-7----------------10-|
D|--------10-----10-----10-----------------10-----------------------|
A|------------------------------------------------------------------|
E|------------------------------------------------------------------|

|--------------X3----------------|
Dm Bb C Fm C
e|----------------------------------------------------------------------------|
B|-10-----------------------------8---8------------------------9-9-10-10-10-8~|
G|----7-7----7-7----7-7----7-9-10-------9-9-7-9-9-7-9-9-7-9-10----------------|
D|--------10-----10-----10----------------------------------------------------|
A|----------------------------------------------------------------------------|
E|----------------------------------------------------------------------------|


CORO FINAL: X2

Fm Bb Fm C
Estoy aquí en tu ciudad
Bb C
Acércate voy a tocar
Fm Bb Fm C
Fabrico sueños con mi voz
Dm Bb Fm
Regalo sentimientos en clave de sol
(En clave de sol~)


CUALQUIER DUDA Y/O COMENTARIOS ESCRÍBANME A: [email protected]



¡Siguiente!

Toca una Canción al Azar de Saurom
Fm
Cm
Ab
Eb
Bb
Dm
C




Aún no hay comentarios, ¡escribe el primero!

Escribe un comentario o pregunta sobre esta canción:




Más canciones de Saurom

Paz
Soñando Contigo
Angeles
El Beso
La Poetisa
Lágrimas Heladas
Amanecer
Flores pintadas en lila
El hada y la luna
Nebulosa
Músico de la calle
El reino de las hadas
Duermedela
Memorias de un héroe
Non Culpa
Para Siempre
Azogue en vergel
Vive!
Reina de mis sueños
Aquel paseo sin retorno

Siguiente


ABRIR ACORDES

Nuestro servidor se demoró 0.07 segundos en generar esta página. Eso fue realmente muy rápido!
x