One Last Goodbye

Anathema

Acordes

Judgement (1999)
Subida por JasonUsabs


Más Versiones
Ver. 2 Ver. 3

Cambiar Cifrado
Americano Latino

Cambiar Tonalidad
-1 +1

Partir Pantalla Imprimir FAQ

+A
-A


Ver solo la LETRA
Intro

|-3---3---2-0---0---2-0---0---2---|-2-0------------|-2-0---------------------|
|-0-0---0---0-0---0---0-0---0---0-|-0---0--0---0-0-|-0---0-0---0-0-0---------|
|---------------------0-----------|-2------4-2---4-|-2-----4-2---4-3---------|
|---------------------------------|--------0-----4-|-------0-------4---------|
|---------------------------------|--------------2-|-------------4-4---------|
|---------------------------------|----------------|---------------2---------|

|------------------------|
|----------0-----0-------|
|------------0-----0-----|
|-74----4-----------4---|
|-52--2-------2-------2-|
|-------------------------|

G
How I needed you
Bm
How I grieve now you're gone
G
In my dreams I see you
Bm
I awake so alone

G Em
I know you didn't want to leave
Bm A
Your heart yearned to stay
G E
But the strength I always loved in you

Bm A
Finally gave way

G Bm A
Somehow I knew you would leave me this way
G Bm A
Somehow I knew you could never stay

Em
And in the early morning light
Bm A
After a silent, peaceful night
Em
You took my heart away
Bm F#
And my being

G
In my dreams I can see you
Bm
I can tell you how I feel
G
In my dreams I can hold you
Bm
And it feels so real

G Em
I still feel the pain
Bm A
I still feel your love
G Em
I still feel the pain
Bm A
I still feel your love

G
And somehow I knew
Bm A
You could never never stay
G Bm A
And somehow I knew you would leave me

Em
And in the early morning light
Bm A
After a silent, peaceful night
Em
You took my heart away
Bm A G
Oh I wish, I wish you could have stayed

Solo

|----------------------------------------------------------------------------|
|------------14-15-----------------------------------------------------------|
|-14~~----16-------14--12-11~--12-14-----------------------------------------|
|------------------------------------14~~-slide down--14bf(16)14~-12--------|
|---------------------------------------------------------------------14-----|
|----------------------------------------------------------------------------|

|----------------------------------------------------------------------------|
|----------------------------------------------------------------------------|
|----------------------------------------------------------------------------|
|-12h14~~-slide down-----12-14-12----12-14-14bf(16)14-12----12-14bf(16)14~--|
|----------------------14----------14---------------------14-----------------|
|----------------------------------------------------------------------------|

|---------------------------------------------------------17~-15h17p15p14----|
|---------------------------17-------17----17----17----17-----------------15-|
|--------------------14-14~----14-14----14----14----14-----------------------|
|-12-12h1412p11--------------------------------------------------------------|
|---------------12~----------------------------------------------------------|
|----------------------------------------------------------------------------|

|----------------------------------------------------------------------------|
|----------------------------------------------------------------------------|
|-14bf(16)14~~---12-11-----(11bh)12backto11-----12-11------------------------|
|----------------------14~------------------14~-------12~-14p12p11~--119~---|
|----------------------------------------------------------------------------|
|----------------------------------------------------------------------------|

NUEVO FORO DE MÚSICA

¿Tienes alguna duda, consulta, pregunta, consejo o algo para compartir sobre esta canción?

¡Puedes abrir un hilo en el FORO para que la comunidad te ayude! Hacer una pregunta

ACORDES PARA GUITARRA

PIANO UKELELE
G
Bm
Em
A
E
F#


Las más tocadas de Anathema

G
Bm
Em
A
E
F#