Take It Or Leave It (Acordes)

Cage the Elephant

Subida por jhonnesbrother

Compartir


Cambiar Cifrado
Americano Latino

Cambiar Tonalidad
-1 +1
Imprimir FAQ
+A
-A

Texto

Desplazamiento

Transportador

Color de Fondo

Archivos

TONALIDAD, TAMAÑO, CIFRADO, SCROL.

Nos renovamos: Ahora puedes cambiar TODO haciendo clic en ICONO de la Guitarra () que aparece en la parte inferior de esta página.


LETRA CON ACORDES

E|------------------------------------|------------------------------------|------------------------------------|
B|---10-10-8-8------------------------|----10-10-8-8-----------------------|--------10-10-8-8-------------------|
G|-------------9-9-7-7----------------|--------------9-9-7-7---------------|------------------------------------|
D|------------------------------------|------------------------------------|------------------------------------|
A|------------------------------------|------------------------------------|------------------------------------|
E|------------------------------------|------------------------------------|------------------------------------|

E|------------------------------------|------------------------------------|
B|-----10-10-8-8----------------------|-----10-10-8-8----------------------|
G|------------------------------------|---------------9-9-7-7--------------|
D|------------------------------------|------------------------------------|
A|------------------------------------|------------------------------------|
E|------------------------------------|------------------------------------|

Intro (Guitarra com Plm Muted Dobrando com o Baixo)

          C                 C                Dm                  Dm
G|------------------|------------------|--7-7----7--------|--7-7--7----------|
D|--10-10-7-10------|--10-10-7-10------|------10----------|-----10-----------|
A|------------------|------------------|------------------|------------------|
E|------------------|------------------|------------------|------------------|

C                                       Dm
Baby you should know by now that I''m right?, for you
C                                  Dm
But every time I step to you, you change? your tune
C
Sweet wheel of death keeps us holding our breathe
Dm
I step to the right, you move to the left
C
Unless no one else
                  Dm  -   G
I''d rather die to myself

C               F      Dm     G
Oh why, won''t you make up your mind?
Em5    Dm5 Em5 Dm5  C
I think I must confess
        F    Dm  G
I''m starting to unwind
Em5 Dm5 Em5 Dm5 Em5 Dm5  C
I been trippin' over you
   F        Dm       G
So tell me something new
Em5  Dm5  Em5 Dm5   Em5
Take it or leave it

C  Dm )

C                                       Dm
Maybe I should pack my things and move on?
C                                          Dm
Maybe I''m foolin' myself and you're already gone?
C
Watching the flames wither and fade
Dm
Trying to make sense of the look on your face
C
I''m down, I''m an itch
                             Dm   G
Just playin' that I can hold on

C               F      Dm     G
Oh why, won''t you make up your mind?
Em5    Dm5 Em5 Dm5  C
I think I must confess
        F    Dm  G
I''m starting to unwind
Em5 Dm5 Em5 Dm5 Em5 Dm5  C
I been trippin' over you
   F        Dm       G
So tell me something new
Em5  Dm5  Em5 Dm5   Em5
Take it or leave it

C  Dm )

C
Baby please
         Dm
Oh baby please
C                       Dm
Stay with me or cut me free
           Dm
It's all of me

C               F      Dm     G
Oh why, won''t you make up your mind?
Em5    Dm5 Em5 Dm5  C
I think I must confess
        F    Dm  G
I''m starting to unwind
Em5 Dm5 Em5 Dm5 Em5 Dm5  C
I been trippin' over you
   F        Dm       G
So tell me something new
Em5  Dm5  Em5 Dm5   Em5
Take it or leave it

Video Clip de Take It Or Leave It


ACORDES PARA GUITARRA

PIANO UKELELE
C
Dm
G
F
Em
Dm


TOP 20: Las más tocadas de Cage the Elephant


Acordes

Cerrar
C
Dm
G
F
Em
Dm

09.23


218