Las Mañanitas (Acordes)

Canciones Populares

Subida por dj12

Compartir


Cambiar Cifrado
Americano Latino

Cambiar Tonalidad
-1 +1
Imprimir FAQ
+A
-A

Texto

Desplazamiento

Transportador

Color de Fondo

Archivos

TONALIDAD, TAMAÑO, CIFRADO, SCROL.

Nos renovamos: Ahora puedes cambiar TODO haciendo clic en ICONO de la Guitarra () que aparece en la parte inferior de esta página.


LETRA CON ACORDES

Bueno aqui les dejo las mañanitas con todo y su requinteo
sale espero y les sirva las mañanitas estan en Sol G

INTRO:

En el intro se tocan estas notas: D7-C-G-D7-G


6|-----------------------------------|
5|-----------------------------------|
4|-----------------------------------|
3|-----------------------------------|
2|--10----8----7----7----5----7----7-|
1|---8----7----5----5----3----5----5-|




6|---------------------------------------------------|
5|---------------------------------------------------|
4|---------------------------------------------------|
3|---------------------------------------------------|
2|-8----10----10----8----10----10----12----13----13--|
1|-7-----8-----8----7-----8-----8----10----12----12--|





6|-------------------------------------------|
5|-------------------------------------------|
4|-------------------------------------------|
3|-------------------------------------------|
2|----12----13----13----12----13----13----13-|
1|----10----12----12----10----12----12----12-|




6|--------------------------------------------|
5|--------------------------------------------|
4|--------------------------------------------|
3|--------------------------------------------|
2|---12----10----8----8----7----8----8----10--|
1|---10-----8----7----7----5----7----7-----8--|





6|--------------------------------------------|
5|--------------------------------------------|
4|--------------------------------------------|
3|--------------------------------------------|
2|----12----12----12----13----13----12----12--|
1|----10----10----10----12----12----10----10--|



6|--------------------------------------------|
5|--------------------------------------------|
4|--------------------------------------------|
3|--------------------------------------------|
2|--12----10----10----10----8----12----12-----|
1|--10-----8-----8-----8----7----10----10-----|



6|----------------------------------|
5|----------------------------------|
4|----------------------------------|
3|----------------------------------|
2|-----11----11----10----10----8----|
1|------9-----9-----8-----8----7----|




G
 Qué linda está la mañana
                        D7
 en que vengo a saludarte.

 Venimos todos con gusto
                      G
 y placer a felicitarte.

G
 El día en que tú naciste,
                         D7
 nacieron todas las flores.

 Y en la pila del bautizo
                       G
 cantaron los ruiseñores.

D7
 Ya viene amaneciendo
        C
 ya la luz del día nos dio,
 D7---G    D7             G          D7   G
 Le--ván--tate de mañana, mira que amaneció.



Aqui Se repite el Intro



6|-----------------------------------|
5|-----------------------------------|
4|-----------------------------------|
3|-----------------------------------|
2|--10----8----7----7----5----7----7-|
1|---8----7----5----5----3----5----5-|




6|---------------------------------------------------|
5|---------------------------------------------------|
4|---------------------------------------------------|
3|---------------------------------------------------|
2|-8----10----10----8----10----10----12----13----13--|
1|-7-----8-----8----7-----8-----8----10----12----12--|





6|-------------------------------------------|
5|-------------------------------------------|
4|-------------------------------------------|
3|-------------------------------------------|
2|----12----13----13----12----13----13----13-|
1|----10----12----12----10----12----12----12-|




6|--------------------------------------------|
5|--------------------------------------------|
4|--------------------------------------------|
3|--------------------------------------------|
2|---12----10----8----8----7----8----8----10--|
1|---10-----8----7----7----5----7----7-----8--|





6|--------------------------------------------|
5|--------------------------------------------|
4|--------------------------------------------|
3|--------------------------------------------|
2|----12----12----12----13----13----12----12--|
1|----10----10----10----12----12----10----10--|



6|--------------------------------------------|
5|--------------------------------------------|
4|--------------------------------------------|
3|--------------------------------------------|
2|--12----10----10----10----8----12----12-----|
1|--10-----8-----8-----8----7----10----10-----|



6|----------------------------------|
5|----------------------------------|
4|----------------------------------|
3|----------------------------------|
2|-----11----11----10----10----8----|
1|------9-----9-----8-----8----7----|



G
 De las estrellas del cielo
                     D7
 Quisiera bajarte dos,

 Una es para saludarte
                       G
 otra es para decirte adiós.

G
 Volaron cuatro palomas
                        D7
 por toditas las ciudades.

 Hoy por ser día de tu santo,
                       G
 te decíamos felicidades.

D7
 Con  claveles y Jazminez
        C
 Este dia quiero adornar,
  D7  G   D7      G
 Hoy por ser día de tu santo
       D7        G
 te venimos a cantar.



Final :  G-G D7



Bueno pues esto es todo me retiro bye



Selene T Amo
Y Estoy Loko Por Ti Jeje
Y Lo Sabes ♥




=JoZh=


Video Clip de Las Mañanitas


ACORDES PARA GUITARRA

PIANO UKELELE
G
D7
C


TOP 20: Las más tocadas de Canciones Populares


Acordes

Cerrar
G
D7
C

18.45

x

96