Compartir


Cambiar Cifrado
Americano Latino

Cambiar Tonalidad
-1 +1
Imprimir FAQ
+A
-A

Texto

Desplazamiento

Transportador

Color de Fondo

Archivos

Mudar para Português

TONALIDAD, TAMAÑO, CIFRADO, SCROL.

Nos renovamos: Ahora puedes cambiar TODO haciendo clic en ICONO de la Guitarra () que aparece en la parte inferior de esta página.


LETRA CON ACORDES

Intro: Em7

         Am11            Em7
Todo dia pondo acautela_____ar                                                                                                                          
                          Am11
As coisas mais lindas que tenho findo em mim
Em7                     Am11
       Pra que eu possa reutilizar
Em7                         Am11
       Postura, clareza, conduta, sem vacilação
Em7

Refrão:

C             Am7
Ah, se desenrola no apogeu

     Em7
E|--3/5--5------5--5/3--3-----3--3--3/5--5----5---5--5/3---3/2--2--|
B|--0----0------0--0----0-----0--0--0----0----0---0--0-----0----0--|
G|--0----0------0--0----0-----0--0--0----0----0---0--0-----0----0--|
D|-----------------------------------------------------------------|
A|-----------------------------------------------------------------|
E|--0--------0----------0---0-------0-------0----------------------|

C             Am7
Ah, vamo simbora só tu e eu

     Em7
E|--3/5--5------5--5/3--3-----3--3--3/5--5----5---5--5/7---7--| E|-7-|
B|--0----0------0--0----0-----0--0--0----0----0---0--0-----0--| B|-0-|
G|--0----0------0--0----0-----0--0--0----0----0---0--0-----0--| G|-0-|
D|------------------------------------------------------------| D|---|
A|------------------------------------------------------------| A|---|
E|--0--------0----------0---0-------0-------0-----------------| E|-0-|


Em7         Am11
O sossego é quase, quase meu
Em7                         Am11
       As vezes me pego por te-lo sem razão
Em7                         Am11
       É que eu não suporto ser e as vezes não
Em7                  Am11         Em7
       Se é, é    Se não,   Não

Refrão:

C             Am7
Ah, se desenrola no apogeu
C             Am7
Ah, vamo simbora só tu e eu


Forma dos acordes  

   Em7       Am11
E|----|   E|-5--|
B|-0--|   B|-5--|
G|-0--|   G|-5--|
D|-0--|   D|-5--|
A|----|   A|----|
E|-0--|   E|-5--|



Obs.: O riff do refrão é feito em cima do acorde de Em7, fazendo slides apenas na corda "Mizinha", nas casas 3, 5 e 2 na primeira vez e 3, 5 e 7 na segunda vez.

Video Clip de Acautelar


ACORDES PARA GUITARRA

PIANO UKELELE
Em7
Am11
C
Am7


TOP 20: Las más tocadas de Castello Branco


Acordes

Cerrar
Em7
Am11
C
Am7

01.57


200