Compartir


Cambiar Cifrado
Americano Latino

Cambiar Tonalidad
-1 +1
Imprimir FAQ
+A
-A

Texto

Desplazamiento

Transportador

Color de Fondo

Archivos

Mudar para Português

TONALIDAD, TAMAÑO, CIFRADO, SCROL.

Nos renovamos: Ahora puedes cambiar TODO haciendo clic en ICONO de la Guitarra () que aparece en la parte inferior de esta página.


LETRA CON ACORDES

Introdução:

E|-|-----5-4--------|
B|-|--5--6-5--------|
G|-|--6--6-3--------|
D|-|--4-------------|
A|-|--3-------------|
E|-|----------------|


  C#m
Incerto lá
  
Disserto cá
      A#m5-
Tenho categoria para amar
         A7m        G#7
Quem não me acrescenta


C#m      
Reparei no céu da boca
B4
Que não devia abrir
A#m5-
Que não devia abrir pra mim

  A7m               G#m7                   
Ah, mas eu só posso ver quando já me fiz faminto
               F#m7          B  
Desse vazio que eu mesmo escolhi, comer


  C#m  B4 A#m5- A7m G#m7  F#m7 B 

E|-|-------------------------------------------|   |----------|
B|-|---0/6-4-1---0/6-4-1---0/6-4-1---0/8-6-4-1-|   |--1-1/3---|
G|-|-------------------------------------------|   |----------|
D|-|-------------------------------------------|   |----------|
A|-|-------------------------------------------|   |----------|
E|-|-------------------------------------------|   |----------|

  C#m
Incerto lá
  
Disserto cá
      A#m5-
Tenho categoria para amar
         A7m     G#7m
Quem não me acrescenta

  C#m
Incerto lá
  
Disserto cá
      A#m5-
Tenho categoria para amar
       A7m       G#7
Quem não me acrescenta


C#m        
Reparei no céu da boca
            Bb4
Só porque tinha, né?
               A#m5-
Só porque tinha céu pra mim
A7m               G#7m                  
Aí veio essa sensação de estar no mesmo teto
                F#7m    B 
Mas não estar pisando o mesmo chão


  C#m  B4 A#m5- A7m G#m7  F#m7 B 

E|-|-----------------------------------------------------|
B|-|---0/6-4-1---0/6-4-1---0/6-4-1---0/8-6-4-1---1-1/3---|
G|-|-----------------------------------------------------|
D|-|-----------------------------------------------------|
A|-|-----------------------------------------------------|
E|-|-----------------------------------------------------|

 C#m
Incerto lá
  
Disserto cá
      A#m5-
Tenho categoria para amar
         A7m        G#7
Quem não me acrescenta


 C#m
Incerto lá
  
Disserto cá
      A#m5-
Tenho categoria para amar
         A7m        G#7
Quem não me acrescenta


Acordes do refrão

      C#m    A#m5- A7m  G#7
E|-|-4---2----0---------------------|
B|-|-5---4----2-----5----4----------|
G|-|-6---2----3-----6----5----------|
D|-|-6---4----2-----6----4----------|
A|-|-4---3----1---------------------|
E|-|----------------5----4----------|

Acordes do verso

      C#m   B4  A#m5- A7m  G#7   F#7m B   
E|-|-4---2---2---0-----------------------2---2--|
B|-|-5---4---5---2-----5----4---2---2----4---4--|
G|-|-6---2---4---3-----6----4---3---2----4---2--|
D|-|-6---4---4---2-----6----4---2---2----4---4--|
A|-|-4---3---2---1-----------------------2---3--|
E|-|-------------------5----4---3---2-----------|

Video Clip de Céu da Boca


ACORDES PARA GUITARRA

PIANO UKELELE
C#m
Cdim
Amaj7
G#7
B4
G#m7
Gdim
F#m7
B
G#maj7
Bb4
F#maj7


TOP 20: Las más tocadas de Castello Branco


Acordes

Cerrar
C#m
Cdim
Amaj7
G#7
B4
G#m7
Gdim
F#m7
B
G#maj7
Bb4
F#maj7

01.32


189