c ▷ CORAGEM: (Castello Branco) Acordes para Guitarra, Piano & Ukelele

Coragem (Acordes)

Castello Branco

Subida por Delta

Compartir


Imprimir FAQ
+A
-A

Texto

Desplazamiento

Transportador

Color de Fondo

Archivos

-A
+A
[Intro] A  Bm  F#m7  E

E|-------------------------------------------|
B|----------5--------5--------5--------5-----|
G|-------6--------6--------6--------6--------|
D|----7--------7--------7--------7-----------|
A|-------------------------------------------|
E|-------------------------------------------|

E|-------------------------------------------|
B|----------7--------7--------2--------2-----|
G|-------7--------7--------2--------2--------|
D|----9--------9--------4--------4-----------|
A|-------------------------------------------|
E|-------------------------------------------|

E|-------------------------------------------|
B|----------0--------0------0--------0-------|
G|-------1--------1-------1-------1----------|
D|----2--------2--------2------2-------------|
A|-------------------------------------------|
E|-------------------------------------------|

 A                     Bm
Já desci por todo esse corpo
      F#m           E
E não vi quem me botou aqui
 A                     Bm
Mas se conhecer de verdade
 F#m            E
Coragem, que coragem
 A      Bm                F#m
Hão de ter quando tão bem notarem
Bm                             F#m    E
Que não tem mais esse trem de homem
      A
Pois tu és
            A
Natural que sejas
         F#m
Mas é algo mais
            Bm
Do que a tua mão
               A
O que faz quem tu és
            A
Natural que sejas
          F#m
Mas é algo mais
            Bm            A
Do que a tua mão que faz

 A                     Bm
Já desci por todo esse corpo
      F#m          E
E não vi quem me botou aqui
 A                     Bm
Mas se conhecer de verdade
 F#m           E
Coragem, que coragem
 A      Bm                F#m
Hão de ter quando tão bem notarem
Bm                             F#m   E
Que não tem mais esse trem de homem
      A
Pois tu és
            A
Natural que sejas
         F#m
Mas é algo mais
            Bm
Do que a tua mão
               A
O que faz quem tu és
            A
Natural que sejas
          F#m
Mas é algo mais
            Bm            A
Do que a tua mão que faz

Video Clip de Coragem


ACORDES PARA GUITARRA

PIANO UKELELE
A
Bm
F#m7
E
F#m


TOP 20: Las más tocadas de Castello Branco


Acordes

Cerrar
A
Bm
F#m7
E
F#m

17.00

x

95