Compartir


Imprimir FAQ
+A
-A

Texto

Desplazamiento

Transportador

Color de Fondo

Archivos

-A
+A
 Em7              Am
Não adianta esperar atitude de quem não tem
      Em7                           Am
Não é ele quem vai estar lá quando você precisar
      Em7                  Am
Não adianta esperar pelo trem que já passou
      Em7                        Am
Um dia eu paro você, vou te fazer enxergar
 Em7          D            Am                   C 
Abrir seus olhos pra fazer você enxergar quem eu sou
 Em7          D            Am                       G  
Abrir seus olhos pra fazer você gostar de mim como eu sou


Em7                    D
Acorda para ver que eu só te quero bem
  Em7                       D              D             
     Deixa a chuva te avisar que o sol vai brilhar pra você
   Em7                       D             Am       C
Eu pude contemplar sua beleza enquanto você sorria
 Em7           D            Am                   C 
    Abrir seus olhos pra fazer você enxergar quem eu sou
 Em7           D            Am                             G
    Abrir seus olhos pra fazer você gostar de mim como eu sou


(Solo)

e||---------------------------------------------------------------------------||
B||--------------------------------10-7-8-------------------------------10-7-8||
G||--7-7-7-7-7-7-7-7-7-7-7-7--/7-9--------7-7-7-7-7-7-7-7-7-7-7-7--/7-9-------||
D||--x-x-x-x-x-x-x-x-x-x-x-x--------------x-x-x-x-x-x-x-x-x-x-x-x-------------||
A||--5-5-5-5-5-5-5-5-5-5-5-5--------------5-5-5-5-5-5-5-5-5-5-5-5-------------||
E||---------------------------------------------------------------------------||

e||---------------------------||
B||---------------------------||
G||--7-7-7-7-7-7-7-7-7-7-7-7--||
D||--x-x-x-x-x-x-x-x-x-x-x-x--||
A||--5-5-5-5-5-5-5-5-5-5-5-5--||
E||---------------------------||

Em7                     Am  
Eu que não sabia que o amor era simples e pleno
Em7                     D
 Fico feliz de estar vívendo e aprendendo
      Em7                  Am                E9                G    
Então deixa a chuva te avisar que o sol vai brilhar pra você

 Em7          D            Am                   C 
Abrir seus olhos pra fazer você enxergar quem eu sou
 Em7          D            Am                        G  
Abrir seus olhos pra fazer você gostar de mim como eu sou



Rithyer Oliveira (SAYAJIN) guitarrista do R4...

Video Clip de Abrir Seus Olhos


ACORDES PARA GUITARRA

PIANO UKELELE
Em7
Am
D
C
G
E9


TOP 20: Las más tocadas de Charlie Brown Jr.


Acordes

Cerrar
Em7
Am
D
C
G
E9

17.34

x

283