c ▷ RESOLVE O MEU PROBLEMA AÍ: (Charlie Brown Jr.) Acordes para Guitarra, Piano & Ukelele

Resolve o Meu Problema Aí (Acordes)

Charlie Brown Jr.

Subida por guidoe7

Compartir


Imprimir FAQ
+A
-A

Texto

Desplazamiento

Transportador

Color de Fondo

Archivos

-A
+A
Intro:
                                     cbjr. so toca meio tom abaixo (Eb Ab Db Gb Bb Eb)
e||-----------------------
B|----------8-7-5-7-8----
G|----------8-7-5-7-8----
D|5--5-8-8--6-5-3-5-6----
A|5--5-8-8---------------
E|3--3-6-6---------------



Solo da 2ª Guitarra

B||8/11-8-6-4-6-8-13-13-15-15-8-
   |_____3x______| 

Refrão:

Base (Gm D#)

e||--------------
B|--------------
G|8-7-5-7-5-3---
D|8-7-5-7-5-3-5-
A|6-5-3-5-3-1-5-
E|------------3-


Final: 

e||---------------
B|---------------
G|--------10-5-5-     (Solo)
D|5-5-----10-5-5-    
A|5-5-----8--3-3-     
E|3-3-8-10-------     
   Varias vezes

Video Clip de Resolve o Meu Problema Aí


ACORDES PARA GUITARRA

PIANO UKELELE
Gm
D#


TOP 20: Las más tocadas de Charlie Brown Jr.


Acordes

Cerrar
Gm
D#

09.43

x

151