c ▷ SOMOS POUCOS MAS SOMOS LOUCOS: (Charlie Brown Jr.) Acordes para Guitarra, Piano & Ukelele

Somos Poucos Mas Somos Loucos (Acordes)

Charlie Brown Jr.

Full Álbum: Bocas ordinárias (2002)
Subida por Tauro6559

Compartir


Imprimir FAQ
+A
-A

Texto

Desplazamiento

Transportador

Color de Fondo

Archivos

-A
+A
Afinação D com a corda E afinada 1tom abaixo
Intro:
e|------------------------------------------------------------------------------------|
B|-----------------------------------------------------------------------------------|
G|-----------------------------------------------------------------------------------|
D|-----------------------------------------------------------------------------------|
A| --3h5--3h5-----5/3------------------------------------------------------------|
E|---------------0---------7--5--3-- 0---------------------------------------------|

e|----------------------------------------------------------------------------------------------|
B|----------------------------------------------------------------------------------------------|
G|----------------------------------------------------------------------------------------------|
D|--7---------------7---------------7---------------7------3--3--3/6--6--6/5---5/3--------|
A|--3h5------------3h5------------3h5------------3h5---3--3--3/6--6--6/5---5/3--------|
E|--0---------------0---------------0----------------0-----3--3--3/6--6--6/5---5/3--------|


Base (fica a música inteira nessa base):

e|----------8-----------------8---------8-------------------------------------------|
B|------------10--8---8-------10--------10--8-----------------------------------|
G|-------------------9---9-----------------------9---------------------------------|
D|-----------------------------------------------------------------------------------|
A|-----------------------------------------------------------------------------------|
E|---0-------------------------------------------------------------------------------|


Refrão:
e|----------------------------------------------------------------------------------------------|
B|----------------------------------------------------------------------------------------------|
G|----------------------------------------------------------------------------------------------|
D|--7---------------7---------------7---------------7------3--3--3/6--6--6/5---5/3--------|
A|--3h5------------3h5------------3h5------------3h5---3--3--3/6--6--6/5---5/3--------|
E|--0---------------0---------------0----------------0-----3--3--3/6--6--6/5---5/3--------|

Video Clip de Somos Poucos Mas Somos Loucos


ACORDES PARA GUITARRA

PIANO UKELELE


TOP 20: Las más tocadas de Charlie Brown Jr.


Acordes

Cerrar

09.39

x

182