c ▷ DIAS DE LUTA, DIAS DE GLÓRIA: (Charlie Brown Jr.) Acordes para Guitarra, Piano & Ukelele

Dias de Luta, Dias de Glória (Acordes)

Charlie Brown Jr.

Full Álbum: Imunidade musical (2005)
Subida por Agustin1

Compartir


Imprimir FAQ
+A
-A

Texto

Desplazamiento

Transportador

Color de Fondo

Archivos

-A
+A
[Intro]

    C7M            Am9
E|----------------------------------|
B|-------0--------------1-----------|
G|---0-----0---0----4-----4----0----|
D|----------------------------------|
A|-3---3-----3----0---0------0------|
E|----------------------------------|
   Em                     H.N......
E|-------------------------12----12-|
B|---------0-------------7----12----|
G|---0--------0----0---0------------|
D|----------------------------------|
A|----------------------------------|
E|-0---0---------0---0--------------|

     C7M
E|----------------------------------|
B|--------0-------0-------1---------|
G|---0-------0--------4-----4---0---|
D|----------------------------------|
A|-3---3--------3---0---0-----0-----|
E|----------------------------------|

    Em              G
E|----------------------------------|
B|---------0------------------------|
G|-----0-----0---0---0---2---0------|
D|-0h2---2-----2--------------------|
A|----------------------------------|
E|-----------------3---3---3--------|

C7M  Am9  Em
         Canto a minha vida com orgulho

[Primeira Parte]

    C7M            Am9
E|--------------------------------|
B|-------0--------------1---------|
G|---0-----0---0----4-----4----0--|
D|--------------------------------|
A|-3---3-----3----0---0------0----|
E|--------------------------------|

    Em
E|--------------------------------|
B|--------0--------------0--------|
G|---0-------0---0---0-----0---0--|
D|--------------------------------|
A|--------------------------------|
E|-0---0-------0---0---0-----0----|

    C7M
E|--------------------------------|
B|--------0-------0-------1-------|
G|---0-------0--------4-----4---0-|
D|--------------------------------|
A|-3---3--------3---0---0-----0---|
E|--------------------------------|

    Em              G
E|--------------------------------|
B|---------0----------------------|
G|-----0-----0---0---0---2---0----|
D|-0h2---2-----2------------------|
A|--------------------------------|
E|-----------------3---3---3------|

          C7M           Am9
Na minha vida tudo acontece
                         Em                  
Mas quanto mais a gente rala, mais a gente cresce

 C7M                           Am9
Hoje estou feliz porque eu sonhei com você
       Em                        G
E amanhã posso chorar por não poder te ver

    C7M                    Am9
Mas    o seu sorriso vale mais que um diamante
      Em                    
Se você vier comigo aí nós vamos adiante

    C7M                    Am9
Com a cabeça erguida e mantendo a fé em Deus
       Em                       G
O seu dia mais feliz vai ser o mesmo que o meu

   C7M                     Am9
A vida me ensinou a nunca desistir
        Em
Nem ganhar, nem perder mas procurar evoluir

 C7M                       Am9
Podem me tirar tudo o que tenho
        Em                       G
Só não podem me tirar as coisas boas
                          C7M
Que eu já fiz pra quem eu amo
                Am9                         Em
Eu sou feliz e canto e o universo é uma canção
              G
E eu vou que vou

[Refrão]

    C7M               Am9
Histórias, nossas histórias
         Em
Dias de luta, dias de glória

    C7M               Am9
Histórias, nossas histórias
         Em             G
Dias de luta, dias de glória 

    C7M               Am9
Histórias, nossas histórias
         Em             G
Dias de luta, dias de glória 

    C7M               Am9
Histórias, nossas histórias
         Em             G
Dias de luta, dias de glória 

[Segunda Parte]

          C7M                   Am9
Oh minha gata, morada dos meus sonhos
      Em
Todo dia, se pudesse eu ia estar com você

       C7M                      Am9
Já te via muito antes nos meus sonhos
         Em                        G
Eu procurei a vida inteira por alguém como você

             C7M                      Am9
Por isso eu canto a minha vida com orgulho
         Em
Com melodia, alegria e barulho

    C7M                   Am9
Eu sou feliz e rodo pelo mundo
          Em                     G
Sou correria mas também sou vagabundo

     C7M                  Am9
Mas hoje dou valor de verdade
            Em                   G
pra minha saúde, pra minha liberdade
     C7M                      Am9
Que bom te encontrar nessa cidade
       Em
Esse brilho intenso me lembra você

[Refrão]

    C7M               Am9
Histórias, nossas histórias
         Em             G
Dias de luta, dias de glória

    C7M               Am9
Histórias, nossas histórias
         Em
Dias de luta, dias de glória 

    C7M               Am9
Histórias, nossas histórias
         Em             G
Dias de luta, dias de glória

    C7M               Am9
Histórias, nossas histórias
         Em
Dias de luta, dias de glória 

[Final]

 C7M                   Am9
Hoje estou feliz, acordei com o pé direito
    Em                       G                 C7M
Eu vou fazer de novo, vou fazer muito bem feito
        Am9
Sintonia, telepatia
 Em
Comunicação pelo cortéx
          ( C7M  Am9  Em  G  C7M  Am9  Em )
Bum baibai

Video Clip de Dias de Luta, Dias de Glória


ACORDES PARA GUITARRA

PIANO UKELELE
Cmaj7
Am9
Em
G


TOP 20: Las más tocadas de Charlie Brown Jr.


Acordes

Cerrar
Cmaj7
Am9
Em
G

09.51

x

100