E-bow (Acordes)

Charlie Brown Jr.

Subida por laralilo

Compartir


Imprimir FAQ
+A
-A

Texto

Desplazamiento

Transportador

Color de Fondo

Archivos

-A
+A
Intro:
E|-------------------------------|
B|-------------------------------|
G|-------------------------------|
D|--------0--5--------5--5--5----|
A|--0-----------5----------------|
E|-----0-----------5-------------|
H.N          .  .  .  .  .  .

Riff 1 4x:
     B5     A5
E|-----------------------
B|-----------------------|
G|-----------------------|
D|---------7px-7px-7px---|
A|------9--7px-7px-7px---|
E|--7-7-7--5---5---5-----|
P.M . .

    A5
E|------|
B|------|
G|------|
D|------|
A|-(7)--|
E|-(5)--|

Riff principal 1 - 2x:
     B5(9)      A11      G9       E5(9) F#4
E|----------------------------------------------
B|----------------------------------------------|
G|-----------------7-6--------4-----------------|
D|------11-12---------------7--------4-----4----|
A|----9----------7--------5--------2-----2------|
E|--7----------5--------3--------0-----2--------|

Riff principal 2 - 3x:
    G5(9)      E5(9)      F#5
E|---------------------------------------------------------------
B|---------------------------------------------------------------|
G|---------------------------------------------------------------|
D|-------7----------4------(0)-----------------------------------|
A|----5----------2------(4)-0--4--5--4-4-5-5-4-4-5-5-4-4-4-4-5---|
E|-3-------x-0-------x-2---------------------------------------|
P.M                                  . . . . . . . . . . . .

Variação do Riff principal 2:
    G5(9)      E5(9)       B5
E|--------------------------------|
B|--------------------------------|
G|--------------------------------|
D|-------7----------4-------------|
A|----5----------2------------9---|
E|-3-------x-0-------x--7-7-7---|
P.M                       . .

(Riff 1)

Video Clip de E-bow


ACORDES PARA GUITARRA

PIANO UKELELE
B5
A5
B9
A11
G9
Eadd9
F#4
Gadd9
F#5


TOP 20: Las más tocadas de Charlie Brown Jr.


Acordes

Cerrar
B5
A5
B9
A11
G9
Eadd9
F#4
Gadd9
F#5

16.33

x

206