c ▷ É QUENTE: (Charlie Brown Jr.) Acordes para Guitarra, Piano & Ukelele

Compartir


Imprimir FAQ
+A
-A

Texto

Desplazamiento

Transportador

Color de Fondo

Archivos

-A
+A
Afinação - DADGBe

    F      D
E|--------------------------------------|
B|--------------------------------------|
G|--------------------------------------|
D|--3-3-3--0----------------------------|
A|--3-3-3--0----------------------------|
D|--3-3-3--0----------------------------|

    F      D   F D
E|--------------------------------------|
B|--------------------------------------|
G|--------------------------------------|
D|--3-3-3--0---3-0----------------------|
A|--3-3-3--0---3-0----------------------|
D|--3-3-3--0---3-0----------------------|


Começa a cantar.
                               H (harmônico)*
E|-----------------------------5--------|
B|-----------------------------5--------|
G|-----------------------------5--------|
D|--3-3-3--0----------------------------|
A|--3-3-3--0----------------------------| 4x
D|--3-3-3--0----------------------------|

Na quarta vez que se repete, toca-se o harmônico natural na quinta casa.


Refrão.
E|--------------------------------------|
B|--------------------------------------|
G|--------------------------------------|
D|--3-3-3--0-0---0-0---7/5--5-3---------| 2x
A|--3-3-3--0-0---0-0---5/3--5-3---------|
D|--3-3-3--0-0---0-0--------5-3---------|

E|--------------------------------------|
B|--------------------------------------|
G|--------------------------------------|
D|--3-3-3--0-7/--0-0-0--7/5--5-3--------| 2x
A|--3-3-3--0-5/--0-0-0--5/3--5-3--------|
D|--3-3-3--0-----0-0-0-------5-3--------|
Começa a cantar novamente
                               H (harmônico)*
E|-----------------------------5--------|
B|-----------------------------5--------|
G|-----------------------------5--------|
D|--3-3-3--0----------------------------|
A|--3-3-3--0----------------------------| 4x
D|--3-3-3--0----------------------------|


Refrão.
E|--------------------------------------|
B|--------------------------------------|
G|--------------------------------------|
D|--3-3-3--0-0---0-0---7/5--5-3---------| 2x
A|--3-3-3--0-0---0-0---5/3--5-3---------|
D|--3-3-3--0-0---0-0--------5-3---------|

E|--------------------------------------|
B|--------------------------------------|
G|--------------------------------------|
D|--3-3-3--0-7/--0-0-0--7/5--5-3--------| 2x
A|--3-3-3--0-5/--0-0-0--5/3--5-3--------|
D|--3-3-3--0-----0-0-0-------5-3--------|


Pré ? refrão.

E|--------------------------------------------------------|
B|--------------------------------------------------------|
G|--------------------------------------------------------|
D|-0--2-2-2-2-2-2--0-2-2-2-2-2-2--0-2-2-2-2-2-2--5-2-5-2--
A|-0--2-2-2-2-2-2--0-2-2-2-2-2-2--0-2-2-2-2-2-2--5-2-5-2--|
D|-0--2-2-2-2-2-2--0-2-2-2-2-2-2--0-2-2-2-2-2-2--5-2-5-2--|
     ____________    ___________    ____________________
        PM                PM                 PM


Refrão.
E|--------------------------------------|
B|--------------------------------------|
G|--------------------------------------|
D|--3-3-3--0-0---0-0---7/5--5-3---------| 2x
A|--3-3-3--0-0---0-0---5/3--5-3---------|
D|--3-3-3--0-0---0-0--------5-3---------|

E|--------------------------------------|
B|--------------------------------------|
G|--------------------------------------|
D|--3-3-3--0-7/--0-0-0--7/5--5-3--------| 2x
A|--3-3-3--0-5/--0-0-0--5/3--5-3--------|
D|--3-3-3--0-----0-0-0-------5-3--------|

Começa a cantar novamente (falem bem falem mal...)

                               H (harmônico)*
E|-----------------------------5--------|
B|-----------------------------5--------|
G|-----------------------------5--------|
D|--3-3-3--0----------------------------|
A|--3-3-3--0----------------------------| 4x
D|--3-3-3--0----------------------------|

Pré ? refrão.

E|--------------------------------------------------------|
B|--------------------------------------------------------|
G|--------------------------------------------------------|
D|-0--2-2-2-2-2-2--0-2-2-2-2-2-2--0-2-2-2-2-2-2--5-2-5-2--
A|-0--2-2-2-2-2-2--0-2-2-2-2-2-2--0-2-2-2-2-2-2--5-2-5-2--|
D|-0--2-2-2-2-2-2--0-2-2-2-2-2-2--0-2-2-2-2-2-2--5-2-5-2--|
     ____________    ___________    ____________________
        PM                PM                 PM

E por ai vai...
Bruno Gomes

Video Clip de É quente


ACORDES PARA GUITARRA

PIANO UKELELE
F
D


TOP 20: Las más tocadas de Charlie Brown Jr.


Acordes

Cerrar
F
D

09.50

x

242