Ela Vai Voltar (Todos Os Defeitos de Uma Mulher Perfeita) (Acordes)

Charlie Brown Jr.

Subida por anardo20

Compartir


Cambiar Cifrado
Americano Latino

Cambiar Tonalidad
-1 +1
Imprimir FAQ
+A
-A

Texto

Desplazamiento

Transportador

Color de Fondo

Archivos

Mudar para Português

TONALIDAD, TAMAÑO, CIFRADO, SCROL.

Nos renovamos: Ahora puedes cambiar TODO haciendo clic en ICONO de la Guitarra () que aparece en la parte inferior de esta página.


LETRA CON ACORDES

[Intro] D9  C9  G/B  Gm/Bb
        D9  C9  G/B  Gm/Bb
 
   D9            C9
E|---0-------x-------------x--------------------------|
B|-----3---3-x-----3-----3-x--------------------------|
G|-------2---x-0-----0-----x--------------------------|
D|-0---------x---------0---x--------------------------|
A|-0---------x---3---------x--------------------------|
E|-0---------x-------------x--------------------------|
  
    G/B            Gm/Bb
E|--------------x-------------------------------------|
B|-----3------0-x-----3-----3-------------------------|
G|-0-----0------x-0-----0-----------------------------|
D|---------0----x---------0---------------------------|
A|---2----------x---3---------------------------------|
E|----------------------------------------------------|

[Refrão]

D9
   Minha mente
         C9
Nem sempre tão lúcida
      G/B            Gm/Bb
É fértil e me deu a voz
D9
   Minha mente
         C9
Nem sempre tão lúcida
    G/B
Fez ela se afastar
 Gm/Bb   D9     C9  G/B  Gm/Bb
Mas ela vai voltar
         D9     C9  G/B  Gm/Bb
Mas ela vai voltar

[Primeira Parte]

        D9
Ela não é

Do tipo de mulher
     C9
Que se entrega na primeira
 G/B
Mas melhora na segunda
     Gm/Bb
E o paraíso é na terceira
  D9
Ela tem força
              C9
Ela tem sensibilidade

Ela é guerreira
    G/B
Ela é uma deusa
              Gm/Bb
Ela é mulher de verdade

D9
   Ela é daquelas
              C9
Que tu gosta na primeira
             G/B
Se apaixona na segunda
                 Gm/Bb
E perde a linha na terceira
D9
   Ela é discreta
          C9
E cultua bons livros
         G/B
E ama os animais
               Gm/Bb
Tá ligado, eu sou o bicho

[Refrão]

D9
   Minha mente
         C9
Nem sempre tão lúcida
      G/B            Gm/Bb
É fértil e me deu a voz
D9
   Minha mente
         C9
Nem sempre tão lúcida
    G/B
Fez ela se afastar
 Gm/Bb   D9     C9  G/B  Gm/Bb
Mas ela vai voltar
         D9     C9  G/B  Gm/Bb
Mas ela vai voltar

D9  C9  G/B  Gm/Bb )
D9  C9  G/B  Gm/Bb ) 

[Segunda Parte]

 D9
Deixa eu te levar
  C9       G/B      Gm/Bb
Pra ver o mundo, baby
 D9              C9
Deixa eu te mostrar
             G/B       Gm/Bb
O melhor que eu posso ser

 D9
Deixa eu te levar
  C9       G/B      Gm/Bb
Pra ver o mundo, baby
 D9              C9
Deixa eu te mostrar
             G/B       Gm/Bb
O melhor que eu posso ser

[Primeira Parte]

        D9
Ela não é

Do tipo de mulher
     C9
Que se entrega na primeira
 G/B
Mas melhora na segunda
     Gm/Bb
E o paraíso é na terceira
  D9
Ela tem força
              C9
Ela tem sensibilidade

Ela é guerreira
    G/B
Ela é uma deusa
              Gm/Bb
Ela é mulher de verdade

D9
   Ela é daquelas
              C9
Que tu gosta na primeira
             G/B
Se apaixona na segunda
                 Gm/Bb
E perde a linha na terceira
D9
   Ela é discreta
          C9
E cultua bons livros
         G/B
E ama os animais
               Gm/Bb
Tá ligado, eu sou o bicho

[Refrão]

D9
   Minha mente
         C9
Nem sempre tão lúcida
      G/B            Gm/Bb
É fértil e me deu a voz
D9
   Minha mente
         C9
Nem sempre tão lúcida
    G/B
Fez ela se afastar
 Gm/Bb   D9     C9  G/B  Gm/Bb
Mas ela vai voltar
         D9     C9  G/B  Gm/Bb
Mas ela vai voltar

[Terceira Parte]

   D11            C4+(9)
E|-------------x--------------x-----------------------|
B|-------3-----x------7-----7-x-----------------------|
G|-----0-----0-x-x------0-----x-x---------------------|
D|---------4---x----------0---x-----------------------|
A|-------------x--------------x-----------------------|
E|-0-0---------x---10---------x-----------------------|

  Bb5              C5
E|-------------x--------------------------------------|
B|-------------x--------------------------------------|
G|---10-----10-x------12-------12---------------------|
D|------8------x-x-------10---------------------------|
A|--------8----x------------10------------------------|
E|-8-----------x---10---------------------------------|

   D11            C4+(9)
E|-------------x--------------------------------------|
B|-------3-----x------7-------------------------------|
G|-----0-----0-x-x------0-----------------------------|
D|---------4---x----------0---------------------------|
A|-------------x--------------------------------------|
E|-0-0---------x---10---------------------------------|

D11             C4+(9)
    Fazer da vida
          Bb5       C5
O que melhor possa ser
D11              C4+(9)
    Traçar um rumo novo
      Bb5         C5
Em direção ao sol
    D11         C4+(9)
Me sinto muito bem
        G5               Bb5
Quando vejo o pôr-do-sol
                       
Só pra fazer nascer a lua

D9  C9  G/B  Gm/Bb )

[Refrão]

D9
   Minha mente
         C9
Nem sempre tão lúcida
      G/B            Gm/Bb
É fértil e me deu a voz

D9
   Minha mente
         C9
Nem sempre tão lúcida
    G/B
Fez ela se afastar

 Gm/Bb   D9     C9  G/B  Gm/Bb
Mas ela vai voltar
         D9     C9  G/B  Gm/Bb
Mas ela vai voltar
         D9     C9  G/B  Gm/Bb
Mas ela vai voltar
         D9     C9  G/B  Gm/Bb  D9
Mas ela vai voltar

Video Clip de Ela Vai Voltar (Todos Os Defeitos de Uma Mulher Perfeita)


ACORDES PARA GUITARRA

PIANO UKELELE
D9
C9
G/B
Gm/Bb
D11
C7#11
Bb5
C5


TOP 20: Las más tocadas de Charlie Brown Jr.


Acordes

Cerrar
D9
C9
G/B
Gm/Bb
D11
C7#11
Bb5
C5

20.47

x

111